   0
SECTION
   2
HEADER
   9
$ACADVER
   1
AC1014
   9
$ACADMAINTVER
  70
0
   9
$DWGCODEPAGE
   3
DOS932
   9
$INSBASE
  10
0.000000
  20
0.000000
  30
0.000000
   9
$EXTMIN
  10
-28742.158804
  20
-16980.359710
  30
-0.500000
   9
$EXTMAX
  10
13128.334370
  20
16788.951207
  30
0.500000
   9
$LIMMIN
  10
-2500000000000.000000
  20
-2500000000000.000000
   9
$LIMMAX
  10
2500000000000.000000
  20
2500000000000.000000
   9
$ORTHOMODE
  70
0
   9
$REGENMODE
  70
1
   9
$FILLMODE
  70
1
   9
$QTEXTMODE
  70
0
   9
$MIRRTEXT
  70
0
   9
$DRAGMODE
  70
2
   9
$LTSCALE
  40
1.000000
   9
$OSMODE
  70
0
   9
$ATTMODE
  70
1
   9
$TEXTSIZE
  40
2.500000
   9
$TRACEWID
  40
1.000000
   9
$TEXTSTYLE
   7
STANDARD
   9
$CLAYER
   8
0
   9
$CELTYPE
   6
BYLAYER
   9
$CECOLOR
  62
256
   9
$CELTSCALE
  40
1.000000
   9
$DELOBJ
  70
1
   9
$DISPSILH
  70
0
   9
$DIMSCALE
  40
1.000000
   9
$DIMASZ
  40
0.180000
   9
$DIMEXO
  40
0.062500
   9
$DIMDLI
  40
0.380000
   9
$DIMRND
  40
0.000000
   9
$DIMDLE
  40
0.000000
   9
$DIMEXE
  40
0.180000
   9
$DIMTP
  40
0.000000
   9
$DIMTM
  40
0.000000
   9
$DIMTXT
  40
0.180000
   9
$DIMCEN
  40
0.090000
   9
$DIMTSZ
  40
0.000000
   9
$DIMTOL
  70
0
   9
$DIMLIM
  70
0
   9
$DIMTIH
  70
1
   9
$DIMTOH
  70
1
   9
$DIMSE1
  70
0
   9
$DIMSE2
  70
0
   9
$DIMTAD
  70
0
   9
$DIMZIN
  70
0
   9
$DIMBLK
   1

   9
$DIMASO
  70
1
   9
$DIMSHO
  70
1
   9
$DIMPOST
   1

   9
$DIMAPOST
   1

   9
$DIMALT
  70
0
   9
$DIMALTD
  70
2
   9
$DIMALTF
  40
25.400000
   9
$DIMLFAC
  40
1.000000
   9
$DIMTOFL
  70
0
   9
$DIMTVP
  40
0.000000
   9
$DIMTIX
  70
0
   9
$DIMSOXD
  70
0
   9
$DIMSAH
  70
0
   9
$DIMBLK1
   1

   9
$DIMBLK2
   1

   9
$DIMSTYLE
   2
STANDARD
   9
$DIMCLRD
  70
0
   9
$DIMCLRE
  70
0
   9
$DIMCLRT
  70
0
   9
$DIMTFAC
  40
1.000000
   9
$DIMGAP
  40
0.090000
   9
$DIMJUST
  70
0
   9
$DIMSD1
  70
0
   9
$DIMSD2
  70
0
   9
$DIMTOLJ
  70
1
   9
$DIMTZIN
  70
0
   9
$DIMALTZ
  70
0
   9
$DIMALTTZ
  70
0
   9
$DIMFIT
  70
3
   9
$DIMUPT
  70
0
   9
$DIMUNIT
  70
2
   9
$DIMDEC
  70
4
   9
$DIMTDEC
  70
4
   9
$DIMALTU
  70
2
   9
$DIMALTTD
  70
2
   9
$DIMTXSTY
   7
STANDARD
   9
$DIMAUNIT
  70
0
   9
$LUNITS
  70
2
   9
$LUPREC
  70
4
   9
$SKETCHINC
  40
0.100000
   9
$FILLETRAD
  40
0.000000
   9
$AUNITS
  70
0
   9
$AUPREC
  70
0
   9
$MENU
   1
.
   9
$ELEVATION
  40
0.000000
   9
$PELEVATION
  40
0.000000
   9
$THICKNESS
  40
0.000000
   9
$LIMCHECK
  70
0
   9
$BLIPMODE
  70
1
   9
$CHAMFERA
  40
0.000000
   9
$CHAMFERB
  40
0.000000
   9
$CHAMFERC
  40
0.000000
   9
$CHAMFERD
  40
0.000000
   9
$SKPOLY
  70
0
   9
$TDCREATE
  40
2453459.640335648
   9
$TDUPDATE
  40
2453459.640335648
   9
$TDINDWG
  40
0.000000
   9
$TDUSRTIMER
  40
0.000000
   9
$USRTIMER
  70
1
   9
$ANGBASE
  50
0.000000
   9
$ANGDIR
  70
0
   9
$PDMODE
  70
0
   9
$PDSIZE
  40
0.000000
   9
$PLINEWID
  40
0.000000
   9
$COORDS
  70
1
   9
$SPLFRAME
  70
0
   9
$SPLINETYPE
  70
6
   9
$SPLINESEGS
  70
8
   9
$ATTDIA
  70
0
   9
$ATTREQ
  70
1
   9
$HANDLING
  70
1
   9
$HANDSEED
   5
             1B7
   9
$SURFTAB1
  70
6
   9
$SURFTAB2
  70
6
   9
$SURFTYPE
  70
6
   9
$SURFU
  70
6
   9
$SURFV
  70
6
   9
$UCSNAME
   2

   9
$UCSORG
  10
0.000000
  20
0.000000
  30
0.000000
   9
$UCSXDIR
  10
1.000000
  20
0.000000
  30
0.000000
   9
$UCSYDIR
  10
0.000000
  20
1.000000
  30
0.000000
   9
$PUCSNAME
   2

   9
$PUCSORG
  10
0.000000
  20
0.000000
  30
0.000000
   9
$PUCSXDIR
  10
1.000000
  20
0.000000
  30
0.000000
   9
$PUCSYDIR
  10
0.000000
  20
1.000000
  30
0.000000
   9
$USERI1
  70
0
   9
$USERI2
  70
0
   9
$USERI3
  70
0
   9
$USERI4
  70
0
   9
$USERI5
  70
0
   9
$USERR1
  40
0.000000
   9
$USERR2
  40
0.000000
   9
$USERR3
  40
0.000000
   9
$USERR4
  40
0.000000
   9
$USERR5
  40
0.000000
   9
$WORLDVIEW
  70
1
   9
$SHADEDGE
  70
3
   9
$SHADEDIF
  70
70
   9
$TILEMODE
  70
1
   9
$MAXACTVP
  70
16
   9
$PINSBASE
  10
0.000000
  20
0.000000
  30
0.000000
   9
$PLIMCHECK
  70
0
   9
$PEXTMIN
  10
-28742.158804
  20
-16980.359710
  30
-0.500000
   9
$PEXTMAX
  10
13128.334370
  20
16788.951207
  30
0.500000
   9
$PLIMMIN
  10
-28742.158804
  20
-16980.359710
   9
$PLIMMAX
  10
13128.334370
  20
16788.951207
   9
$UNITMODE
  70
0
   9
$VISRETAIN
  70
0
   9
$PLINEGEN
  70
0
   9
$PSLTSCALE
  70
1
   9
$TREEDEPTH
  70
3020
   9
$PICKSTYLE
  70
1
   9
$CMLSTYLE
   2
STANDARD
   9
$CMLJUST
  70
0
   9
$CMLSCALE
  40
1.000000
   9
$PROXYGRAPHICS
  70
0
   9
$MEASUREMENT
  70
1
   0
ENDSEC
   0
SECTION
   2
CLASSES
   0
CLASS
   1
LWPOLYLINE
   2
AcDbPolyline
   3
"AutoCAD"
  90
0
 280
0
 281
1
   0
CLASS
   1
HATCH
   2
AcDbHatch
   3
"ACAD_SEDONA"
  90
0
 280
0
 281
1
   0
ENDSEC
   0
SECTION
   2
TABLES
   0
TABLE
   2
VPORT
   5
1
 100
AcDbSymbolTable
  70
1
   0
VPORT
   5
2
 100
AcDbSymbolTableRecord
 100
AcDbViewportTableRecord
   2
*ACTIVE
  70
0
  10
0.000000
  20
0.000000
  11
1.000000
  21
1.000000
  12
0.000000
  22
0.000000
  13
0.000000
  23
0.000000
  14
1000.000000
  24
1000.000000
  15
1000.000000
  25
1000.000000
  16
0.000000
  26
0.000000
  36
1.000000
  17
0.000000
  27
0.000000
  37
0.000000
  40
37128.000000
  41
1.512868
  42
50.000000
  43
0.000000
  44
0.000000
  50
0.000000
  51
0.000000
  71
0
  72
100
  73
1
  74
1
  75
0
  76
0
  77
0
  78
0
   0
ENDTAB
   0
TABLE
   2
LTYPE
   5
3
 100
AcDbSymbolTable
  70
10
   0
LTYPE
   5
4
 100
AcDbSymbolTableRecord
 100
AcDbLinetypeTableRecord
   2
BYLAYER
  70
64
   3

  72
65
  73
0
  40
0.000000
   0
LTYPE
   5
5
 100
AcDbSymbolTableRecord
 100
AcDbLinetypeTableRecord
   2
BYBLOCK
  70
64
   3

  72
65
  73
0
  40
0.000000
   0
LTYPE
   5
6
 100
AcDbSymbolTableRecord
 100
AcDbLinetypeTableRecord
   2
CONTINUOUS
  70
64
   3
Solid line
  72
65
  73
0
  40
0.000000
   0
LTYPE
   5
7
 100
AcDbSymbolTableRecord
 100
AcDbLinetypeTableRecord
   2
DEFAULT
  70
64
   3
MicroGDS Compact3D --------------------------
  72
65
  73
0
  40
0.000000
   0
LTYPE
   5
8
 100
AcDbSymbolTableRecord
 100
AcDbLinetypeTableRecord
   2
BLANK
  70
64
   3

  72
65
  73
0
  40
0.000000
   0
LTYPE
   5
9
 100
AcDbSymbolTableRecord
 100
AcDbLinetypeTableRecord
   2
ポイント01
  70
64
   3
MicroGDS Compact3D --------------------------
  72
65
  73
0
  40
0.000000
   0
LTYPE
   5
A
 100
AcDbSymbolTableRecord
 100
AcDbLinetypeTableRecord
   2
一点鎖線01
  70
64
   3
MicroGDS Compact3D --   -  --  --   -  --  
  72
65
  73
5
  40
350.000000
  49
100.000000
  74
0
  49
-50.000000
  74
0
  49
50.000000
  74
0
  49
-50.000000
  74
0
  49
100.000000
  74
0
   0
LTYPE
   5
B
 100
AcDbSymbolTableRecord
 100
AcDbLinetypeTableRecord
   2
実線01
  70
64
   3
MicroGDS Compact3D --------------------------
  72
65
  73
0
  40
0.000000
   0
LTYPE
   5
C
 100
AcDbSymbolTableRecord
 100
AcDbLinetypeTableRecord
   2
実線03
  70
64
   3
MicroGDS Compact3D --------------------------
  72
65
  73
0
  40
0.000000
   0
LTYPE
   5
D
 100
AcDbSymbolTableRecord
 100
AcDbLinetypeTableRecord
   2
破線01
  70
64
   3
MicroGDS Compact3D --    --    --    --    
  72
65
  73
2
  40
200.000000
  49
100.000000
  74
0
  49
-100.000000
  74
0
   0
ENDTAB
   0
TABLE
   2
LAYER
   5
F
 100
AcDbSymbolTable
  70
13
   0
LAYER
   5
10
 100
AcDbSymbolTableRecord
 100
AcDbLayerTableRecord
   2
0
  70
64
  62
7
   6
CONTINUOUS
   0
LAYER
   5
11
 100
AcDbSymbolTableRecord
 100
AcDbLayerTableRecord
   2
図面枠
  70
64
  62
1
   6
CONTINUOUS
   0
LAYER
   5
12
 100
AcDbSymbolTableRecord
 100
AcDbLayerTableRecord
   2
基準線
  70
64
  62
2
   6
CONTINUOUS
   0
LAYER
   5
13
 100
AcDbSymbolTableRecord
 100
AcDbLayerTableRecord
   2
下描線
  70
64
  62
3
   6
CONTINUOUS
   0
LAYER
   5
14
 100
AcDbSymbolTableRecord
 100
AcDbLayerTableRecord
   2
躯体
  70
64
  62
4
   6
CONTINUOUS
   0
LAYER
   5
15
 100
AcDbSymbolTableRecord
 100
AcDbLayerTableRecord
   2
間仕切
  70
64
  62
5
   6
CONTINUOUS
   0
LAYER
   5
16
 100
AcDbSymbolTableRecord
 100
AcDbLayerTableRecord
   2
仕上
  70
64
  62
6
   6
CONTINUOUS
   0
LAYER
   5
17
 100
AcDbSymbolTableRecord
 100
AcDbLayerTableRecord
   2
建具
  70
64
  62
7
   6
CONTINUOUS
   0
LAYER
   5
18
 100
AcDbSymbolTableRecord
 100
AcDbLayerTableRecord
   2
家具
  70
64
  62
8
   6
CONTINUOUS
   0
LAYER
   5
19
 100
AcDbSymbolTableRecord
 100
AcDbLayerTableRecord
   2
寸法線
  70
64
  62
9
   6
CONTINUOUS
   0
LAYER
   5
1A
 100
AcDbSymbolTableRecord
 100
AcDbLayerTableRecord
   2
文字
  70
64
  62
10
   6
CONTINUOUS
   0
LAYER
   5
1B
 100
AcDbSymbolTableRecord
 100
AcDbLayerTableRecord
   2
外構
  70
64
  62
11
   6
CONTINUOUS
   0
LAYER
   5
1C
 100
AcDbSymbolTableRecord
 100
AcDbLayerTableRecord
   2
その他
  70
64
  62
12
   6
CONTINUOUS
   0
ENDTAB
   0
TABLE
   2
STYLE
   5
1D
 100
AcDbSymbolTable
  70
3
   0
STYLE
   5
1E
 100
AcDbSymbolTableRecord
 100
AcDbTextStyleTableRecord
   2
DEFAULT
  70
64
  40
0.000000
  41
1.000000
  50
0.000000
  71
0
  42
0.350000
   3
TXT
   4
BIGFONT
   0
STYLE
   5
1F
 100
AcDbSymbolTableRecord
 100
AcDbTextStyleTableRecord
   2
ゴシック50
  70
64
  40
0.000000
  41
1.000000
  50
0.000000
  71
0
  42
0.350000
   3
MS Gothic.ttf
   4

1001
ACAD
1000
MS Gothic
1071
32817
   0
STYLE
   5
20
 100
AcDbSymbolTableRecord
 100
AcDbTextStyleTableRecord
   2
STANDARD
  70
64
  40
0.000000
  41
1.000000
  50
0.000000
  71
0
  42
0.350000
   3
txt
   4

   0
ENDTAB
   0
TABLE
   2
VIEW
   5
21
 100
AcDbSymbolTable
  70
0
   0
ENDTAB
   0
TABLE
   2
UCS
   5
22
 100
AcDbSymbolTable
  70
0
   0
ENDTAB
   0
TABLE
   2
APPID
   5
23
 100
AcDbSymbolTable
  70
1
   0
APPID
   5
24
 100
AcDbSymbolTableRecord
 100
AcDbRegAppTableRecord
   2
ACAD
  70
0
   0
ENDTAB
   0
TABLE
   2
DIMSTYLE
   5
25
 100
AcDbSymbolTable
  70
1
   0
DIMSTYLE
 105
26
 100
AcDbSymbolTableRecord
 100
AcDbDimStyleTableRecord
   2
STANDARD
  70
0
   3

   4

   5

   6

   7

  40
1.000000
  41
0.180000
  42
0.062500
  43
0.380000
  44
0.180000
  45
0.000000
  46
0.000000
  47
0.000000
  48
0.000000
 140
0.180000
 141
0.090000
 142
0.000000
 143
25.400000
 144
1.000000
 145
0.000000
 146
1.000000
 147
0.090000
  71
0
  72
0
  73
1
  74
1
  75
0
  76
0
  77
0
  78
0
 170
0
 171
2
 172
0
 173
0
 174
0
 175
0
 176
0
 177
0
 178
0
 270
2
 271
4
 272
4
 273
2
 274
2
 340
20
 275
0
 280
0
 281
0
 282
0
 283
1
 284
0
 285
0
 286
0
 287
3
 288
0
   0
ENDTAB
   0
TABLE
   2
BLOCK_RECORD
   5
27
 100
AcDbSymbolTable
  70
39
   0
BLOCK_RECORD
   5
28
 100
AcDbSymbolTableRecord
 100
AcDbBlockTableRecord
   2
*MODEL_SPACE
   0
BLOCK_RECORD
   5
29
 100
AcDbSymbolTableRecord
 100
AcDbBlockTableRecord
   2
*PAPER_SPACE
   0
BLOCK_RECORD
   5
2A
 100
AcDbSymbolTableRecord
 100
AcDbBlockTableRecord
   2
NO_NAME
   0
BLOCK_RECORD
   5
2B
 100
AcDbSymbolTableRecord
 100
AcDbBlockTableRecord
   2
NO_NAME$0
   0
BLOCK_RECORD
   5
2C
 100
AcDbSymbolTableRecord
 100
AcDbBlockTableRecord
   2
NO_NAME$1
   0
BLOCK_RECORD
   5
2D
 100
AcDbSymbolTableRecord
 100
AcDbBlockTableRecord
   2
NO_NAME$2
   0
BLOCK_RECORD
   5
2E
 100
AcDbSymbolTableRecord
 100
AcDbBlockTableRecord
   2
NO_NAME$3
   0
BLOCK_RECORD
   5
2F
 100
AcDbSymbolTableRecord
 100
AcDbBlockTableRecord
   2
NO_NAME_HATCH
   0
BLOCK_RECORD
   5
30
 100
AcDbSymbolTableRecord
 100
AcDbBlockTableRecord
   2
NO_NAME_HATCH$0
   0
BLOCK_RECORD
   5
31
 100
AcDbSymbolTableRecord
 100
AcDbBlockTableRecord
   2
NO_NAME_DIMCHAIN
   0
BLOCK_RECORD
   5
32
 100
AcDbSymbolTableRecord
 100
AcDbBlockTableRecord
   2
NO_NAME_DIMCHAIN$0
   0
BLOCK_RECORD
   5
33
 100
AcDbSymbolTableRecord
 100
AcDbBlockTableRecord
   2
NO_NAME_DIMCHAIN$1
   0
BLOCK_RECORD
   5
34
 100
AcDbSymbolTableRecord
 100
AcDbBlockTableRecord
   2
NO_NAME_DIMCHAIN$2
   0
BLOCK_RECORD
   5
35
 100
AcDbSymbolTableRecord
 100
AcDbBlockTableRecord
   2
NO_NAME_DIMCHAIN$3
   0
BLOCK_RECORD
   5
36
 100
AcDbSymbolTableRecord
 100
AcDbBlockTableRecord
   2
NO_NAME_DIMCHAIN$4
   0
BLOCK_RECORD
   5
37
 100
AcDbSymbolTableRecord
 100
AcDbBlockTableRecord
   2
NO_NAME_DIMCHAIN$5
   0
BLOCK_RECORD
   5
38
 100
AcDbSymbolTableRecord
 100
AcDbBlockTableRecord
   2
NO_NAME_DIMCHAIN$6
   0
BLOCK_RECORD
   5
39
 100
AcDbSymbolTableRecord
 100
AcDbBlockTableRecord
   2
NO_NAME_DIMCHAIN$7
   0
BLOCK_RECORD
   5
3A
 100
AcDbSymbolTableRecord
 100
AcDbBlockTableRecord
   2
NO_NAME_DIMCHAIN$8
   0
BLOCK_RECORD
   5
3B
 100
AcDbSymbolTableRecord
 100
AcDbBlockTableRecord
   2
NO_NAME_DIMCHAIN$9
   0
BLOCK_RECORD
   5
3C
 100
AcDbSymbolTableRecord
 100
AcDbBlockTableRecord
   2
NO_NAME_DIMCHAIN$10
   0
BLOCK_RECORD
   5
3D
 100
AcDbSymbolTableRecord
 100
AcDbBlockTableRecord
   2
NO_NAME_DIMCHAIN$11
   0
BLOCK_RECORD
   5
3E
 100
AcDbSymbolTableRecord
 100
AcDbBlockTableRecord
   2
NO_NAME_DIMCHAIN$12
   0
BLOCK_RECORD
   5
3F
 100
AcDbSymbolTableRecord
 100
AcDbBlockTableRecord
   2
NO_NAME_DIMCHAIN$13
   0
BLOCK_RECORD
   5
40
 100
AcDbSymbolTableRecord
 100
AcDbBlockTableRecord
   2
NO_NAME_DIMCHAIN$14
   0
BLOCK_RECORD
   5
41
 100
AcDbSymbolTableRecord
 100
AcDbBlockTableRecord
   2
NO_NAME_DIMCHAIN$15
   0
BLOCK_RECORD
   5
42
 100
AcDbSymbolTableRecord
 100
AcDbBlockTableRecord
   2
NO_NAME_DIMCHAIN$16
   0
BLOCK_RECORD
   5
43
 100
AcDbSymbolTableRecord
 100
AcDbBlockTableRecord
   2
NO_NAME_DIMCHAIN$17
   0
BLOCK_RECORD
   5
44
 100
AcDbSymbolTableRecord
 100
AcDbBlockTableRecord
   2
NO_NAME_DIMCHAIN$18
   0
BLOCK_RECORD
   5
45
 100
AcDbSymbolTableRecord
 100
AcDbBlockTableRecord
   2
NO_NAME_DIMCHAIN$19
   0
BLOCK_RECORD
   5
46
 100
AcDbSymbolTableRecord
 100
AcDbBlockTableRecord
   2
NO_NAME_DIMCHAIN$20
   0
BLOCK_RECORD
   5
47
 100
AcDbSymbolTableRecord
 100
AcDbBlockTableRecord
   2
NO_NAME_DIMCHAIN$21
   0
BLOCK_RECORD
   5
48
 100
AcDbSymbolTableRecord
 100
AcDbBlockTableRecord
   2
NO_NAME_DIMCHAIN$22
   0
BLOCK_RECORD
   5
49
 100
AcDbSymbolTableRecord
 100
AcDbBlockTableRecord
   2
NO_NAME_DIMCHAIN$23
   0
BLOCK_RECORD
   5
4A
 100
AcDbSymbolTableRecord
 100
AcDbBlockTableRecord
   2
NO_NAME_DIMCHAIN$24
   0
BLOCK_RECORD
   5
4B
 100
AcDbSymbolTableRecord
 100
AcDbBlockTableRecord
   2
NO_NAME_DIMCHAIN$25
   0
BLOCK_RECORD
   5
4C
 100
AcDbSymbolTableRecord
 100
AcDbBlockTableRecord
   2
NO_NAME_DIMCHAIN$26
   0
BLOCK_RECORD
   5
4D
 100
AcDbSymbolTableRecord
 100
AcDbBlockTableRecord
   2
NO_NAME_DIMCHAIN$27
   0
BLOCK_RECORD
   5
4E
 100
AcDbSymbolTableRecord
 100
AcDbBlockTableRecord
   2
NO_NAME$4
   0
ENDTAB
   0
ENDSEC
   0
SECTION
   2
BLOCKS
   0
BLOCK
   5
4F
 100
AcDbEntity
   8
0
 100
AcDbBlockBegin
   2
*MODEL_SPACE
  70
0
  10
0.000000
  20
0.000000
  30
0.000000
   1

   3
*MODEL_SPACE
   0
ENDBLK
   5
50
 100
AcDbEntity
   8
0
 100
AcDbBlockEnd
   0
BLOCK
   5
51
 100
AcDbEntity
  67
1
   8
0
 100
AcDbBlockBegin
   2
*PAPER_SPACE
  70
0
  10
0.000000
  20
0.000000
  30
0.000000
   1

   3
*PAPER_SPACE
   0
ENDBLK
   5
52
 100
AcDbEntity
  67
1
   8
0
 100
AcDbBlockEnd
   0
BLOCK
   5
53
 100
AcDbEntity
   8
図面枠
 100
AcDbBlockBegin
   2
NO_NAME
  70
0
  10
0.000000
  20
0.000000
  30
0.000000
   1

   3
NO_NAME
   0
ATTDEF
   5
54
 100
AcDbEntity
   8
0
 100
AcDbText
  10
0.000000
  20
0.000000
  30
0.000000
  40
2.500000
   1
no:name
 100
AcDbAttributeDefinition
   3

   2
ISI_MICROGDS_OBJECT_NAME
  70
3
   0
LWPOLYLINE
   5
55
 100
AcDbEntity
   8
0
   6
実線03
 100
AcDbPolyline
  90
4
  70
1
  43
0.000000
  38
0.000000
  10
-10344.253419
  20
6674.578208
  10
-10844.253419
  20
3650.117151
  10
-1100.483739
  20
-15837.421792
  10
911.977407
  20
-15837.421792
   0
LINE
   5
56
 100
AcDbEntity
   8
0
   6
実線03
 100
AcDbLine
  10
-9844.253419
  20
-6837.421792
  30
0.000000
  11
-5625.125675
  21
-6837.421792
  31
0.000000
   0
LWPOLYLINE
   5
57
 100
AcDbEntity
   8
0
   6
実線03
 100
AcDbPolyline
  90
4
  70
0
  43
0.000000
  38
0.000000
  10
-3593.009871
  20
-6837.421792
  10
1155.746581
  20
-6837.421792
  10
1155.746581
  20
-9837.421792
  10
-2091.347445
  20
-9837.421792
   0
LINE
   5
58
 100
AcDbEntity
   8
0
   6
実線03
 100
AcDbLine
  10
-4116.911696
  20
-9837.421792
  30
0.000000
  11
-10344.253419
  21
-9837.421792
  31
0.000000
   0
LWPOLYLINE
   5
59
 100
AcDbEntity
   8
0
   6
実線03
 100
AcDbPolyline
  90
3
  70
0
  43
0.000000
  38
0.000000
  10
-12844.253419
  20
1605.248827
  10
-12844.253419
  20
-7337.421792
  10
-12344.253419
  20
-7337.421792
   0
LWPOLYLINE
   5
5A
 100
AcDbEntity
   8
0
   6
実線03
 100
AcDbPolyline
  90
3
  70
0
  43
0.000000
  38
0.000000
  10
-10344.253419
  20
-7337.421792
  10
-9844.253419
  20
-7337.421792
  10
-9844.253419
  20
1554.877584
   0
LWPOLYLINE
   5
5B
 100
AcDbEntity
   8
0
   6
実線03
 100
AcDbPolyline
  90
4
  70
0
  43
0.000000
  38
0.000000
  10
-12344.253419
  20
2650.117151
  10
-12344.253419
  20
-15837.421792
  10
-10344.253419
  20
-15837.421792
  10
-10344.253419
  20
2650.117173
   0
LWPOLYLINE
   5
5C
 100
AcDbEntity
   8
0
   6
実線03
 100
AcDbPolyline
  90
4
  70
1
  43
0.000000
  38
0.000000
  10
-12844.253419
  20
13162.578208
  10
-9844.253419
  20
13162.578208
  10
-9844.253419
  20
10162.578208
  10
-12844.253419
  20
10162.578208
   0
LINE
   5
5D
 100
AcDbEntity
   8
0
   6
実線03
 100
AcDbLine
  10
-12344.253419
  20
10162.578208
  30
0.000000
  11
-12344.253419
  21
6650.117279
  31
0.000000
   0
LINE
   5
5E
 100
AcDbEntity
   8
0
   6
実線03
 100
AcDbLine
  10
-10344.253419
  20
10162.578208
  30
0.000000
  11
-10344.253419
  21
6650.117279
  31
0.000000
   0
LINE
   5
5F
 100
AcDbEntity
   8
0
   6
実線03
 100
AcDbLine
  10
-9844.253419
  20
10162.578208
  30
0.000000
  11
-9844.253419
  21
5651.224336
  31
0.000000
   0
LINE
   5
60
 100
AcDbEntity
   8
0
   6
実線03
 100
AcDbLine
  10
-12844.253419
  20
10162.578208
  30
0.000000
  11
-12844.253419
  21
5651.224327
  31
0.000000
   0
LWPOLYLINE
   5
61
 100
AcDbEntity
   8
0
   6
実線03
 100
AcDbPolyline
  90
4
  70
0
  43
0.000000
  38
0.000000
  10
-11794.253419
  20
13162.578208
  10
-11794.253419
  20
15662.578208
  10
-10894.253419
  20
15662.578208
  10
-10894.253419
  20
13162.578208
   0
LWPOLYLINE
   5
62
 100
AcDbEntity
   8
0
   6
実線03
 100
AcDbPolyline
  90
4
  70
0
  43
0.000000
  38
0.000000
  10
-10894.253419
  20
13762.578208
  10
-7594.253419
  20
13762.578208
  10
-7594.253419
  20
13162.578208
  10
-9844.253419
  20
13162.578208
   0
LINE
   5
63
 100
AcDbEntity
   8
0
   6
実線03
 100
AcDbLine
  10
-10360.411416
  20
-14271.742352
  30
0.000000
  11
-1906.992866
  21
-14271.742352
  31
0.000000
   0
LWPOLYLINE
   5
64
 100
AcDbEntity
   8
0
   6
実線01
 100
AcDbPolyline
  90
5
  70
0
  43
0.000000
  38
0.000000
  10
3339.858851
  20
-11928.184697
  10
6411.039600
  20
-12077.497620
  10
8282.101875
  20
-12819.044279
  10
11328.693655
  20
-12410.292982
  10
13127.834370
  20
-11501.600538
   0
LWPOLYLINE
   5
65
 100
AcDbEntity
   8
0
   6
実線03
 100
AcDbPolyline
  90
7
  70
0
  43
0.000000
  38
0.000000
  10
2425.914289
  20
9042.277509
  10
3925.160499
  20
9792.731412
  10
3871.833710
  20
11016.315517
  10
5371.831179
  20
11767.145465
  10
7081.603864
  20
14726.388144
  10
10199.819998
  20
13491.718296
  10
12213.889808
  20
9468.861669
   0
LINE
   5
66
 100
AcDbEntity
   8
0
   6
実線03
 100
AcDbLine
  10
3339.858851
  20
-11928.184697
  30
0.000000
  11
2425.914289
  21
9042.277509
  31
0.000000
   0
LINE
   5
67
 100
AcDbEntity
   8
0
   6
実線01
 100
AcDbLine
  10
5371.831179
  20
11767.145465
  30
0.000000
  11
6411.039651
  21
-12077.497720
  31
0.000000
   0
LINE
   5
68
 100
AcDbEntity
   8
0
   6
実線03
 100
AcDbLine
  10
8282.101875
  20
-12819.044279
  30
0.000000
  11
7081.603864
  21
14726.388144
  31
0.000000
   0
LINE
   5
69
 100
AcDbEntity
   8
0
   6
実線03
 100
AcDbLine
  10
10199.819998
  20
13491.718296
  30
0.000000
  11
11328.693655
  21
-12410.292982
  31
0.000000
   0
LINE
   5
6A
 100
AcDbEntity
   8
0
   6
実線03
 100
AcDbLine
  10
13127.834370
  20
-11501.600538
  30
0.000000
  11
12213.889808
  21
9468.861669
  31
0.000000
   0
LWPOLYLINE
   5
6B
 100
AcDbEntity
   8
0
   6
実線03
 100
AcDbPolyline
  90
4
  70
0
  43
0.000000
  38
0.000000
  10
-13820.625000
  20
3721.895569
  10
-12344.253419
  20
6674.578208
  10
-11850.389180
  20
3637.845630
  10
-13820.625000
  20
-302.625926
   0
LINE
   5
6C
 100
AcDbEntity
   8
0
   6
実線03
 100
AcDbLine
  10
-13820.625000
  20
-6837.421792
  30
0.000000
  11
-12844.253419
  21
-6837.421792
  31
0.000000
   0
LINE
   5
6D
 100
AcDbEntity
   8
0
   6
実線03
 100
AcDbLine
  10
-12344.253419
  20
-9837.421792
  30
0.000000
  11
-13820.625000
  21
-9837.421792
  31
0.000000
   0
LINE
   5
6E
 100
AcDbEntity
   8
0
   6
実線03
 100
AcDbLine
  10
-12844.253419
  20
13162.578208
  30
0.000000
  11
-13820.625000
  21
13162.578208
  31
0.000000
   0
LINE
   5
6F
 100
AcDbEntity
   8
0
   6
実線03
 100
AcDbLine
  10
-13820.625000
  20
13762.578208
  30
0.000000
  11
-11794.253419
  21
13762.578208
  31
0.000000
   0
LWPOLYLINE
   5
70
 100
AcDbEntity
   8
0
   6
実線03
 100
AcDbPolyline
  90
3
  70
0
  43
0.000000
  38
0.000000
  10
-13820.625000
  20
-15566.834854
  10
-13375.658246
  20
-15344.104901
  10
-13820.625000
  20
-14458.184152
   0
LWPOLYLINE
   5
71
 100
AcDbEntity
   8
0
   6
実線03
 100
AcDbPolyline
  90
4
  70
0
  43
0.000000
  38
0.000000
  10
-13820.625000
  20
-16911.438531
  10
1449.425500
  20
-16912.296336
  10
911.977293
  20
-15837.421965
  10
-13820.625000
  20
-15837.421871
   0
LINE
   5
72
 100
AcDbEntity
   8
0
   6
実線03
 100
AcDbLine
  10
-13820.625000
  20
-14270.622720
  30
0.000000
  11
-12344.253419
  21
-14271.742352
  31
0.000000
   0
ENDBLK
   5
73
 100
AcDbEntity
   8
図面枠
 100
AcDbBlockEnd
   0
BLOCK
   5
74
 100
AcDbEntity
   8
図面枠
 100
AcDbBlockBegin
   2
NO_NAME$0
  70
0
  10
0.000000
  20
0.000000
  30
0.000000
   1

   3
NO_NAME$0
   0
ATTDEF
   5
75
 100
AcDbEntity
   8
0
 100
AcDbText
  10
0.000000
  20
0.000000
  30
0.000000
  40
2.500000
   1
no:name
 100
AcDbAttributeDefinition
   3

   2
ISI_MICROGDS_OBJECT_NAME
  70
3
   0
LINE
   5
76
 100
AcDbEntity
   8
0
   6
破線01
 100
AcDbLine
  10
-5625.125675
  20
-6837.421792
  30
0.000000
  11
-3593.009871
  21
-6837.421792
  31
0.000000
   0
LINE
   5
77
 100
AcDbEntity
   8
0
   6
破線01
 100
AcDbLine
  10
-4116.911696
  20
-9837.421792
  30
0.000000
  11
-2091.347445
  21
-9837.421792
  31
0.000000
   0
LINE
   5
78
 100
AcDbEntity
   8
0
   6
破線01
 100
AcDbLine
  10
-12844.253419
  20
-6837.421792
  30
0.000000
  11
-9844.253419
  21
-6837.421792
  31
0.000000
   0
LINE
   5
79
 100
AcDbEntity
   8
0
   6
破線01
 100
AcDbLine
  10
-12344.253419
  20
-9837.421792
  30
0.000000
  11
-10344.253419
  21
-9837.421792
  31
0.000000
   0
LINE
   5
7A
 100
AcDbEntity
   8
0
   6
破線01
 100
AcDbLine
  10
-12844.253419
  20
5651.224327
  30
0.000000
  11
-12844.253419
  21
1605.248827
  31
0.000000
   0
LINE
   5
7B
 100
AcDbEntity
   8
0
   6
破線01
 100
AcDbLine
  10
-12344.253419
  20
6650.117279
  30
0.000000
  11
-12344.253419
  21
2602.683072
  31
0.000000
   0
LINE
   5
7C
 100
AcDbEntity
   8
0
   6
破線01
 100
AcDbLine
  10
-10344.253419
  20
6650.117279
  30
0.000000
  11
-10344.253419
  21
2549.431421
  31
0.000000
   0
LINE
   5
7D
 100
AcDbEntity
   8
0
   6
破線01
 100
AcDbLine
  10
-9844.253419
  20
5651.224336
  30
0.000000
  11
-9844.253419
  21
1554.877584
  31
0.000000
   0
LINE
   5
7E
 100
AcDbEntity
   8
0
   6
実線01
 100
AcDbLine
  10
-12844.253419
  20
13162.578208
  30
0.000000
  11
-9844.253419
  21
10162.578208
  31
0.000000
   0
LINE
   5
7F
 100
AcDbEntity
   8
0
   6
実線01
 100
AcDbLine
  10
-9844.253419
  20
13162.578208
  30
0.000000
  11
-12844.253419
  21
10162.578208
  31
0.000000
   0
LINE
   5
80
 100
AcDbEntity
   8
0
   6
破線01
 100
AcDbLine
  10
-11794.253419
  20
13762.578208
  30
0.000000
  11
-10894.253419
  21
13762.578208
  31
0.000000
   0
LINE
   5
81
 100
AcDbEntity
   8
0
   6
破線01
 100
AcDbLine
  10
-10894.253419
  20
13162.578208
  30
0.000000
  11
-10894.253419
  21
10162.578208
  31
0.000000
   0
LINE
   5
82
 100
AcDbEntity
   8
0
   6
破線01
 100
AcDbLine
  10
-11794.253419
  20
13162.578208
  30
0.000000
  11
-11794.253419
  21
10103.500023
  31
0.000000
   0
LINE
   5
83
 100
AcDbEntity
   8
0
   6
破線01
 100
AcDbLine
  10
-7958.110803
  20
9983.905428
  30
0.000000
  11
-8032.857425
  21
9894.209483
  31
0.000000
   0
LINE
   5
84
 100
AcDbEntity
   8
0
   6
一点鎖線01
 100
AcDbLine
  10
-12844.253419
  20
11662.578208
  30
0.000000
  11
-9844.253419
  21
11662.578208
  31
0.000000
   0
LINE
   5
85
 100
AcDbEntity
   8
0
   6
一点鎖線01
 100
AcDbLine
  10
-11344.253419
  20
15662.578208
  30
0.000000
  11
-11344.253419
  21
-15837.421792
  31
0.000000
   0
LINE
   5
86
 100
AcDbEntity
   8
0
   6
破線01
 100
AcDbLine
  10
-10344.253419
  20
-14271.742352
  30
0.000000
  11
-12344.253419
  21
-14271.742352
  31
0.000000
   0
LINE
   5
87
 100
AcDbEntity
   8
0
   6
破線01
 100
AcDbLine
  10
-1884.694159
  20
-14271.742352
  30
0.000000
  11
131.200204
  21
-14271.742352
  31
0.000000
   0
LINE
   5
88
 100
AcDbEntity
   8
0
   6
破線01
 100
AcDbLine
  10
-6344.253419
  20
-6837.421792
  30
0.000000
  11
-6344.253419
  21
-9837.421792
  31
0.000000
   0
LINE
   5
89
 100
AcDbEntity
   8
0
   6
破線01
 100
AcDbLine
  10
-12344.253419
  20
-7337.421792
  30
0.000000
  11
-10344.253419
  21
-7337.421792
  31
0.000000
   0
LWPOLYLINE
   5
8A
 100
AcDbEntity
   8
0
   6
破線01
 100
AcDbPolyline
  90
4
  70
0
  43
0.000000
  38
0.000000
  10
-11944.253419
  20
-7337.421792
  10
-12244.253419
  20
-8337.421792
  10
-10444.253419
  20
-8337.421792
  10
-10744.253419
  20
-7337.421792
   0
LWPOLYLINE
   5
8B
 100
AcDbEntity
   8
0
   6
一点鎖線01
 100
AcDbPolyline
  90
3
  70
0
  43
0.000000
  38
0.000000
  10
-13820.625000
  20
1709.835239
  10
-11344.253419
  20
6662.578401
  10
441.814689
  20
-16909.557814
   0
LINE
   5
8C
 100
AcDbEntity
   8
0
   6
一点鎖線01
 100
AcDbLine
  10
-13820.625000
  20
-8337.421792
  30
0.000000
  11
1155.746581
  21
-8337.421792
  31
0.000000
   0
LINE
   5
8D
 100
AcDbEntity
   8
0
   6
破線01
 100
AcDbLine
  10
-13820.625000
  20
-14494.594218
  30
0.000000
  11
239.818873
  21
-14494.594218
  31
0.000000
   0
ENDBLK
   5
8E
 100
AcDbEntity
   8
図面枠
 100
AcDbBlockEnd
   0
BLOCK
   5
8F
 100
AcDbEntity
   8
図面枠
 100
AcDbBlockBegin
   2
NO_NAME$1
  70
0
  10
0.000000
  20
0.000000
  30
0.000000
   1

   3
NO_NAME$1
   0
ATTDEF
   5
90
 100
AcDbEntity
   8
0
 100
AcDbText
  10
0.000000
  20
0.000000
  30
0.000000
  40
2.500000
   1
no:name
 100
AcDbAttributeDefinition
   3

   2
ISI_MICROGDS_OBJECT_NAME
  70
3
   0
LWPOLYLINE
   5
91
 100
AcDbEntity
   8
0
   6
実線03
 100
AcDbPolyline
  90
4
  70
1
  43
0.000000
  38
0.000000
  10
2718.245710
  20
2334.731703
  10
5777.108977
  20
2468.044523
  10
6222.870655
  20
685.763273
  10
3164.007388
  20
552.450453
   0
ENDBLK
   5
92
 100
AcDbEntity
   8
図面枠
 100
AcDbBlockEnd
   0
BLOCK
   5
93
 100
AcDbEntity
   8
図面枠
 100
AcDbBlockBegin
   2
NO_NAME$2
  70
0
  10
0.000000
  20
0.000000
  30
0.000000
   1

   3
NO_NAME$2
   0
ATTDEF
   5
94
 100
AcDbEntity
   8
0
 100
AcDbText
  10
0.000000
  20
0.000000
  30
0.000000
  40
2.500000
   1
no:name
 100
AcDbAttributeDefinition
   3

   2
ISI_MICROGDS_OBJECT_NAME
  70
3
   0
LINE
   5
95
 100
AcDbEntity
   8
0
   6
一点鎖線01
 100
AcDbLine
  10
11226.084485
  20
11431.867914
  30
0.000000
  11
12228.264007
  21
-11955.946763
  31
0.000000
   0
LINE
   5
96
 100
AcDbEntity
   8
0
   6
一点鎖線01
 100
AcDbLine
  10
7346.570783
  20
-12448.270967
  30
0.000000
  11
6226.717541
  21
13246.766839
  31
0.000000
   0
ENDBLK
   5
97
 100
AcDbEntity
   8
図面枠
 100
AcDbBlockEnd
   0
BLOCK
   5
98
 100
AcDbEntity
   8
図面枠
 100
AcDbBlockBegin
   2
NO_NAME$3
  70
0
  10
0.000000
  20
0.000000
  30
0.000000
   1

   3
NO_NAME$3
   0
ATTDEF
   5
99
 100
AcDbEntity
   8
0
 100
AcDbText
  10
0.000000
  20
0.000000
  30
0.000000
  40
2.500000
   1
no:name
 100
AcDbAttributeDefinition
   3

   2
ISI_MICROGDS_OBJECT_NAME
  70
3
   0
LINE
   5
9A
 100
AcDbEntity
   8
0
   6
破線01
 100
AcDbLine
  10
5614.373572
  20
14647.731663
  30
0.000000
  11
6814.245702
  21
-12883.017078
  31
0.000000
   0
LINE
   5
9B
 100
AcDbEntity
   8
0
   6
破線01
 100
AcDbLine
  10
3743.363595
  20
-12740.880410
  30
0.000000
  11
2614.489939
  21
13161.130868
  31
0.000000
   0
ENDBLK
   5
9C
 100
AcDbEntity
   8
図面枠
 100
AcDbBlockEnd
   0
BLOCK
   5
9D
 100
AcDbEntity
   8
図面枠
 100
AcDbBlockBegin
   2
NO_NAME_HATCH
  70
0
  10
0.000000
  20
0.000000
  30
0.000000
   1

   3
NO_NAME_HATCH
   0
ATTDEF
   5
9E
 100
AcDbEntity
   8
0
 100
AcDbText
  10
0.000000
  20
0.000000
  30
0.000000
  40
2.500000
   1
no:name:HATCH
 100
AcDbAttributeDefinition
   3

   2
ISI_MICROGDS_OBJECT_NAME
  70
3
   0
LINE
   5
9F
 100
AcDbEntity
   8
0
   6
DEFAULT
 100
AcDbLine
  10
-19867.964587
  20
4071.617882
  30
0.000000
  11
-20208.557806
  21
4071.617882
  31
0.000000
   0
LINE
   5
A0
 100
AcDbEntity
   8
0
   6
DEFAULT
 100
AcDbLine
  10
-19703.685401
  20
4321.617882
  30
0.000000
  11
-20155.988257
  21
4321.617882
  31
0.000000
   0
LINE
   5
A1
 100
AcDbEntity
   8
0
   6
DEFAULT
 100
AcDbLine
  10
-19539.406214
  20
4571.617882
  30
0.000000
  11
-19722.975555
  21
4571.617882
  31
0.000000
   0
ENDBLK
   5
A2
 100
AcDbEntity
   8
図面枠
 100
AcDbBlockEnd
   0
BLOCK
   5
A3
 100
AcDbEntity
   8
図面枠
 100
AcDbBlockBegin
   2
NO_NAME_HATCH$0
  70
0
  10
0.000000
  20
0.000000
  30
0.000000
   1

   3
NO_NAME_HATCH$0
   0
ATTDEF
   5
A4
 100
AcDbEntity
   8
0
 100
AcDbText
  10
0.000000
  20
0.000000
  30
0.000000
  40
2.500000
   1
no:name:HATCH
 100
AcDbAttributeDefinition
   3

   2
ISI_MICROGDS_OBJECT_NAME
  70
3
   0
LINE
   5
A5
 100
AcDbEntity
   8
0
   6
DEFAULT
 100
AcDbLine
  10
3902.269990
  20
-4855.814235
  30
0.000000
  11
3584.003088
  21
-4855.814235
  31
0.000000
   0
LINE
   5
A6
 100
AcDbEntity
   8
0
   6
DEFAULT
 100
AcDbLine
  10
4160.772782
  20
-4605.814235
  30
0.000000
  11
3424.763049
  21
-4605.814235
  31
0.000000
   0
LINE
   5
A7
 100
AcDbEntity
   8
0
   6
DEFAULT
 100
AcDbLine
  10
4419.275574
  20
-4355.814235
  30
0.000000
  11
3265.523010
  21
-4355.814235
  31
0.000000
   0
LINE
   5
A8
 100
AcDbEntity
   8
0
   6
DEFAULT
 100
AcDbLine
  10
4677.778366
  20
-4105.814235
  30
0.000000
  11
3106.282971
  21
-4105.814235
  31
0.000000
   0
LINE
   5
A9
 100
AcDbEntity
   8
0
   6
DEFAULT
 100
AcDbLine
  10
4936.281159
  20
-3855.814235
  30
0.000000
  11
2947.042932
  21
-3855.814235
  31
0.000000
   0
LINE
   5
AA
 100
AcDbEntity
   8
0
   6
DEFAULT
 100
AcDbLine
  10
4921.936661
  20
-3605.814235
  30
0.000000
  11
2787.802893
  21
-3605.814235
  31
0.000000
   0
LINE
   5
AB
 100
AcDbEntity
   8
0
   6
DEFAULT
 100
AcDbLine
  10
4762.696622
  20
-3355.814235
  30
0.000000
  11
2628.562855
  21
-3355.814235
  31
0.000000
   0
LINE
   5
AC
 100
AcDbEntity
   8
0
   6
DEFAULT
 100
AcDbLine
  10
4603.456583
  20
-3105.814235
  30
0.000000
  11
2469.322816
  21
-3105.814235
  31
0.000000
   0
LINE
   5
AD
 100
AcDbEntity
   8
0
   6
DEFAULT
 100
AcDbLine
  10
4444.216544
  20
-2855.814235
  30
0.000000
  11
2310.082777
  21
-2855.814235
  31
0.000000
   0
LINE
   5
AE
 100
AcDbEntity
   8
0
   6
DEFAULT
 100
AcDbLine
  10
4284.976505
  20
-2605.814235
  30
0.000000
  11
2150.842738
  21
-2605.814235
  31
0.000000
   0
LINE
   5
AF
 100
AcDbEntity
   8
0
   6
DEFAULT
 100
AcDbLine
  10
4125.736467
  20
-2355.814235
  30
0.000000
  11
2172.186767
  21
-2355.814235
  31
0.000000
   0
LINE
   5
B0
 100
AcDbEntity
   8
0
   6
DEFAULT
 100
AcDbLine
  10
3966.496428
  20
-2105.814235
  30
0.000000
  11
2430.689559
  21
-2105.814235
  31
0.000000
   0
LINE
   5
B1
 100
AcDbEntity
   8
0
   6
DEFAULT
 100
AcDbLine
  10
3807.256389
  20
-1855.814235
  30
0.000000
  11
2689.192351
  21
-1855.814235
  31
0.000000
   0
LINE
   5
B2
 100
AcDbEntity
   8
0
   6
DEFAULT
 100
AcDbLine
  10
3648.016350
  20
-1605.814235
  30
0.000000
  11
2947.695143
  21
-1605.814235
  31
0.000000
   0
LINE
   5
B3
 100
AcDbEntity
   8
0
   6
DEFAULT
 100
AcDbLine
  10
3488.776311
  20
-1355.814235
  30
0.000000
  11
3206.197935
  21
-1355.814235
  31
0.000000
   0
ENDBLK
   5
B4
 100
AcDbEntity
   8
図面枠
 100
AcDbBlockEnd
   0
BLOCK
   5
B5
 100
AcDbEntity
   8
躯体
 100
AcDbBlockBegin
   2
NO_NAME_DIMCHAIN
  70
0
  10
0.000000
  20
0.000000
  30
0.000000
   1

   3
NO_NAME_DIMCHAIN
   0
ATTDEF
   5
B6
 100
AcDbEntity
   8
0
 100
AcDbText
  10
0.000000
  20
0.000000
  30
0.000000
  40
2.500000
   1
no:name:DIMCHAIN
 100
AcDbAttributeDefinition
   3

   2
ISI_MICROGDS_OBJECT_NAME
  70
3
   0
LINE
   5
B7
 100
AcDbEntity
   8
0
   6
BLANK
 100
AcDbLine
  10
-12344.253419
  20
1059.694676
  30
0.000000
  11
-11844.253419
  21
1059.694676
  31
0.000000
   0
LINE
   5
B8
 100
AcDbEntity
   8
0
   6
ポイント01
 100
AcDbLine
  10
-12344.253419
  20
1059.694676
  30
0.000000
  11
-11844.253419
  21
1059.694676
  31
0.000000
   0
LINE
   5
B9
 100
AcDbEntity
   8
0
   6
DEFAULT
 100
AcDbLine
  10
-11844.253419
  20
959.694676
  30
0.000000
  11
-11844.253419
  21
3856.967000
  31
0.000000
   0
LINE
   5
BA
 100
AcDbEntity
   8
0
   6
DEFAULT
 100
AcDbLine
  10
-12344.253419
  20
959.694676
  30
0.000000
  11
-12344.253419
  21
2060.849293
  31
0.000000
   0
TEXT
   5
BB
 100
AcDbEntity
   8
0
 100
AcDbText
  40
160.000000
   1
10
   7
ゴシック50
  10
-12219.253419
  20
1104.694676
  30
0.000000
  72
1
  11
-12094.253419
  21
1059.694676
  31
0.000000
 100
AcDbText
  73
1
   0
ENDBLK
   5
BC
 100
AcDbEntity
   8
躯体
 100
AcDbBlockEnd
   0
BLOCK
   5
BD
 100
AcDbEntity
   8
躯体
 100
AcDbBlockBegin
   2
NO_NAME_DIMCHAIN$0
  70
0
  10
0.000000
  20
0.000000
  30
0.000000
   1

   3
NO_NAME_DIMCHAIN$0
   0
ATTDEF
   5
BE
 100
AcDbEntity
   8
0
 100
AcDbText
  10
0.000000
  20
0.000000
  30
0.000000
  40
2.500000
   1
no:name:DIMCHAIN
 100
AcDbAttributeDefinition
   3

   2
ISI_MICROGDS_OBJECT_NAME
  70
3
   0
LINE
   5
BF
 100
AcDbEntity
   8
0
   6
BLANK
 100
AcDbLine
  10
-10844.253419
  20
1059.694676
  30
0.000000
  11
-10344.253419
  21
1059.694676
  31
0.000000
   0
LINE
   5
C0
 100
AcDbEntity
   8
0
   6
ポイント01
 100
AcDbLine
  10
-10844.253419
  20
1059.694676
  30
0.000000
  11
-10344.253419
  21
1059.694676
  31
0.000000
   0
LINE
   5
C1
 100
AcDbEntity
   8
0
   6
DEFAULT
 100
AcDbLine
  10
-10344.253419
  20
959.694676
  30
0.000000
  11
-10344.253419
  21
1844.858618
  31
0.000000
   0
LINE
   5
C2
 100
AcDbEntity
   8
0
   6
DEFAULT
 100
AcDbLine
  10
-10844.253419
  20
959.694676
  30
0.000000
  11
-10844.253419
  21
4143.413614
  31
0.000000
   0
TEXT
   5
C3
 100
AcDbEntity
   8
0
 100
AcDbText
  40
160.000000
   1
10
   7
ゴシック50
  10
-10719.253419
  20
1104.694676
  30
0.000000
  72
1
  11
-10594.253419
  21
1059.694676
  31
0.000000
 100
AcDbText
  73
1
   0
ENDBLK
   5
C4
 100
AcDbEntity
   8
躯体
 100
AcDbBlockEnd
   0
BLOCK
   5
C5
 100
AcDbEntity
   8
躯体
 100
AcDbBlockBegin
   2
NO_NAME_DIMCHAIN$1
  70
0
  10
0.000000
  20
0.000000
  30
0.000000
   1

   3
NO_NAME_DIMCHAIN$1
   0
ATTDEF
   5
C6
 100
AcDbEntity
   8
0
 100
AcDbText
  10
0.000000
  20
0.000000
  30
0.000000
  40
2.500000
   1
no:name:DIMCHAIN
 100
AcDbAttributeDefinition
   3

   2
ISI_MICROGDS_OBJECT_NAME
  70
3
   0
LINE
   5
C7
 100
AcDbEntity
   8
0
   6
BLANK
 100
AcDbLine
  10
-12844.253419
  20
-1140.530329
  30
0.000000
  11
-9844.253419
  21
-1140.530329
  31
0.000000
   0
LINE
   5
C8
 100
AcDbEntity
   8
0
   6
ポイント01
 100
AcDbLine
  10
-12844.253419
  20
-1140.530329
  30
0.000000
  11
-9844.253419
  21
-1140.530329
  31
0.000000
   0
TEXT
   5
C9
 100
AcDbEntity
   8
0
 100
AcDbText
  40
160.000000
   1
60
   7
ゴシック50
  10
-11469.253419
  20
-1095.530329
  30
0.000000
  72
1
  11
-11344.253419
  21
-1140.530329
  31
0.000000
 100
AcDbText
  73
1
   0
ENDBLK
   5
CA
 100
AcDbEntity
   8
躯体
 100
AcDbBlockEnd
   0
BLOCK
   5
CB
 100
AcDbEntity
   8
躯体
 100
AcDbBlockBegin
   2
NO_NAME_DIMCHAIN$2
  70
0
  10
0.000000
  20
0.000000
  30
0.000000
   1

   3
NO_NAME_DIMCHAIN$2
   0
ATTDEF
   5
CC
 100
AcDbEntity
   8
0
 100
AcDbText
  10
0.000000
  20
0.000000
  30
0.000000
  40
2.500000
   1
no:name:DIMCHAIN
 100
AcDbAttributeDefinition
   3

   2
ISI_MICROGDS_OBJECT_NAME
  70
3
   0
TEXT
   5
CD
 100
AcDbEntity
   8
0
 100
AcDbText
  40
160.000000
   1
???
   7
ゴシック50
  10
-12274.921792
  20
28536.658804
  30
0.000000
  72
1
  11
-12087.421792
  21
28491.658804
  31
0.000000
 100
AcDbText
  73
1
   0
TEXT
   5
CE
 100
AcDbEntity
   8
0
 100
AcDbText
  40
160.000000
   1
???
   7
ゴシック50
  10
-1024.921792
  20
28536.658804
  30
0.000000
  72
1
  11
-837.421792
  21
28491.658804
  31
0.000000
 100
AcDbText
  73
1
   0
TEXT
   5
CF
 100
AcDbEntity
   8
0
 100
AcDbText
  40
160.000000
   1
???
   7
ゴシック50
  10
8975.078208
  20
28536.658804
  30
0.000000
  72
1
  11
9162.578208
  21
28491.658804
  31
0.000000
 100
AcDbText
  73
1
   0
TEXT
   5
D0
 100
AcDbEntity
   8
0
 100
AcDbText
  40
160.000000
   1
???
   7
ゴシック50
  10
13475.078208
  20
28536.658804
  30
0.000000
  72
1
  11
13662.578208
  21
28491.658804
  31
0.000000
 100
AcDbText
  73
1
   0
LINE
   5
D1
 100
AcDbEntity
   8
0
   6
DEFAULT
 100
AcDbLine
  10
6662.578208
  20
13820.625000
  30
0.000000
  11
6662.578208
  21
12902.362934
  31
0.000000
   0
LINE
   5
D2
 100
AcDbEntity
   8
0
   6
DEFAULT
 100
AcDbLine
  10
11662.578208
  20
13820.625000
  30
0.000000
  11
11662.578208
  21
13438.570001
  31
0.000000
   0
LINE
   5
D3
 100
AcDbEntity
   8
0
   6
DEFAULT
 100
AcDbLine
  10
15662.578208
  20
13820.625000
  30
0.000000
  11
15662.578208
  21
11844.253419
  31
0.000000
   0
ENDBLK
   5
D4
 100
AcDbEntity
   8
躯体
 100
AcDbBlockEnd
   0
BLOCK
   5
D5
 100
AcDbEntity
   8
躯体
 100
AcDbBlockBegin
   2
NO_NAME_DIMCHAIN$3
  70
0
  10
0.000000
  20
0.000000
  30
0.000000
   1

   3
NO_NAME_DIMCHAIN$3
   0
ATTDEF
   5
D6
 100
AcDbEntity
   8
0
 100
AcDbText
  10
0.000000
  20
0.000000
  30
0.000000
  40
2.500000
   1
no:name:DIMCHAIN
 100
AcDbAttributeDefinition
   3

   2
ISI_MICROGDS_OBJECT_NAME
  70
3
   0
TEXT
   5
D7
 100
AcDbEntity
   8
0
 100
AcDbText
  40
160.000000
   1
???
   7
ゴシック50
  10
-22781.753419
  20
-11504.151544
  30
0.000000
  72
1
  11
-22594.253419
  21
-11549.151544
  31
0.000000
 100
AcDbText
  73
1
   0
LINE
   5
D8
 100
AcDbEntity
   8
0
   6
DEFAULT
 100
AcDbLine
  10
-11344.253419
  20
-11449.151544
  30
0.000000
  11
-11344.253419
  21
-13481.004826
  31
0.000000
   0
TEXT
   5
D9
 100
AcDbEntity
   8
0
 100
AcDbText
  40
160.000000
   1
???
   7
ゴシック50
  10
-15281.753419
  20
-11504.151544
  30
0.000000
  72
1
  11
-15094.253419
  21
-11549.151544
  31
0.000000
 100
AcDbText
  73
1
   0
LINE
   5
DA
 100
AcDbEntity
   8
0
   6
BLANK
 100
AcDbLine
  10
-11344.253419
  20
-11549.151544
  30
0.000000
  11
-3844.253419
  21
-11549.151544
  31
0.000000
   0
LINE
   5
DB
 100
AcDbEntity
   8
0
   6
ポイント01
 100
AcDbLine
  10
-11344.253419
  20
-11549.151544
  30
0.000000
  11
-3844.253419
  21
-11549.151544
  31
0.000000
   0
LINE
   5
DC
 100
AcDbEntity
   8
0
   6
DEFAULT
 100
AcDbLine
  10
-3844.253419
  20
-11449.151544
  30
0.000000
  11
-3844.253419
  21
-13549.344595
  31
0.000000
   0
TEXT
   5
DD
 100
AcDbEntity
   8
0
 100
AcDbText
  40
160.000000
   1
150
   7
ゴシック50
  10
-7781.753419
  20
-11504.151544
  30
0.000000
  72
1
  11
-7594.253419
  21
-11549.151544
  31
0.000000
 100
AcDbText
  73
1
   0
LINE
   5
DE
 100
AcDbEntity
   8
0
   6
BLANK
 100
AcDbLine
  10
-13820.625000
  20
-11549.151544
  30
0.000000
  11
-11344.253419
  21
-11549.151544
  31
0.000000
   0
LINE
   5
DF
 100
AcDbEntity
   8
0
   6
ポイント01
 100
AcDbLine
  10
-13820.625000
  20
-11549.151544
  30
0.000000
  11
-11344.253419
  21
-11549.151544
  31
0.000000
   0
ENDBLK
   5
E0
 100
AcDbEntity
   8
躯体
 100
AcDbBlockEnd
   0
BLOCK
   5
E1
 100
AcDbEntity
   8
躯体
 100
AcDbBlockBegin
   2
NO_NAME_DIMCHAIN$4
  70
0
  10
0.000000
  20
0.000000
  30
0.000000
   1

   3
NO_NAME_DIMCHAIN$4
   0
ATTDEF
   5
E2
 100
AcDbEntity
   8
0
 100
AcDbText
  10
0.000000
  20
0.000000
  30
0.000000
  40
2.500000
   1
no:name:DIMCHAIN
 100
AcDbAttributeDefinition
   3

   2
ISI_MICROGDS_OBJECT_NAME
  70
3
   0
TEXT
   5
E3
 100
AcDbEntity
   8
0
 100
AcDbText
  40
160.000000
   1
???
   7
ゴシック50
  10
-21531.753419
  20
-4533.495174
  30
0.000000
  72
1
  11
-21344.253419
  21
-4578.495174
  31
0.000000
 100
AcDbText
  73
1
   0
ENDBLK
   5
E4
 100
AcDbEntity
   8
躯体
 100
AcDbBlockEnd
   0
BLOCK
   5
E5
 100
AcDbEntity
   8
躯体
 100
AcDbBlockBegin
   2
NO_NAME_DIMCHAIN$5
  70
0
  10
0.000000
  20
0.000000
  30
0.000000
   1

   3
NO_NAME_DIMCHAIN$5
   0
ATTDEF
   5
E6
 100
AcDbEntity
   8
0
 100
AcDbText
  10
0.000000
  20
0.000000
  30
0.000000
  40
2.500000
   1
no:name:DIMCHAIN
 100
AcDbAttributeDefinition
   3

   2
ISI_MICROGDS_OBJECT_NAME
  70
3
   0
LINE
   5
E7
 100
AcDbEntity
   8
0
   6
BLANK
 100
AcDbLine
  10
-3844.253419
  20
-4578.495174
  30
0.000000
  11
1155.746581
  21
-4578.495174
  31
0.000000
   0
LINE
   5
E8
 100
AcDbEntity
   8
0
   6
ポイント01
 100
AcDbLine
  10
-3844.253419
  20
-4578.495174
  30
0.000000
  11
1155.746581
  21
-4578.495174
  31
0.000000
   0
LINE
   5
E9
 100
AcDbEntity
   8
0
   6
DEFAULT
 100
AcDbLine
  10
1156.103607
  20
-4478.316482
  30
0.000000
  11
1156.103607
  21
-6787.243100
  31
0.000000
   0
LINE
   5
EA
 100
AcDbEntity
   8
0
   6
DEFAULT
 100
AcDbLine
  10
-3844.253419
  20
-4478.495174
  30
0.000000
  11
-3844.253419
  21
-11399.151544
  31
0.000000
   0
TEXT
   5
EB
 100
AcDbEntity
   8
0
 100
AcDbText
  40
160.000000
   1
100
   7
ゴシック50
  10
-1531.753419
  20
-4533.495174
  30
0.000000
  72
1
  11
-1344.253419
  21
-4578.495174
  31
0.000000
 100
AcDbText
  73
1
   0
ENDBLK
   5
EC
 100
AcDbEntity
   8
躯体
 100
AcDbBlockEnd
   0
BLOCK
   5
ED
 100
AcDbEntity
   8
躯体
 100
AcDbBlockBegin
   2
NO_NAME_DIMCHAIN$6
  70
0
  10
0.000000
  20
0.000000
  30
0.000000
   1

   3
NO_NAME_DIMCHAIN$6
   0
ATTDEF
   5
EE
 100
AcDbEntity
   8
0
 100
AcDbText
  10
0.000000
  20
0.000000
  30
0.000000
  40
2.500000
   1
no:name:DIMCHAIN
 100
AcDbAttributeDefinition
   3

   2
ISI_MICROGDS_OBJECT_NAME
  70
3
   0
LINE
   5
EF
 100
AcDbEntity
   8
0
   6
BLANK
 100
AcDbLine
  10
-12344.253419
  20
-4003.694681
  30
0.000000
  11
-10344.253419
  21
-4003.694681
  31
0.000000
   0
LINE
   5
F0
 100
AcDbEntity
   8
0
   6
ポイント01
 100
AcDbLine
  10
-12344.253419
  20
-4003.694681
  30
0.000000
  11
-10344.253419
  21
-4003.694681
  31
0.000000
   0
LINE
   5
F1
 100
AcDbEntity
   8
0
   6
DEFAULT
 100
AcDbLine
  10
-10344.253419
  20
-3903.694681
  30
0.000000
  11
-10344.253419
  21
-4083.333062
  31
0.000000
   0
TEXT
   5
F2
 100
AcDbEntity
   8
0
 100
AcDbText
  40
160.000000
   1
40
   7
ゴシック50
  10
-11469.253419
  20
-3958.694681
  30
0.000000
  72
1
  11
-11344.253419
  21
-4003.694681
  31
0.000000
 100
AcDbText
  73
1
   0
ENDBLK
   5
F3
 100
AcDbEntity
   8
躯体
 100
AcDbBlockEnd
   0
BLOCK
   5
F4
 100
AcDbEntity
   8
躯体
 100
AcDbBlockBegin
   2
NO_NAME_DIMCHAIN$7
  70
0
  10
0.000000
  20
0.000000
  30
0.000000
   1

   3
NO_NAME_DIMCHAIN$7
   0
ATTDEF
   5
F5
 100
AcDbEntity
   8
0
 100
AcDbText
  10
0.000000
  20
0.000000
  30
0.000000
  40
2.500000
   1
no:name:DIMCHAIN
 100
AcDbAttributeDefinition
   3

   2
ISI_MICROGDS_OBJECT_NAME
  70
3
   0
LINE
   5
F6
 100
AcDbEntity
   8
0
   6
BLANK
 100
AcDbLine
  10
-8337.421792
  20
13512.121226
  30
0.000000
  11
-7337.421792
  21
13512.121226
  31
0.000000
   0
LINE
   5
F7
 100
AcDbEntity
   8
0
   6
ポイント01
 100
AcDbLine
  10
-8337.421792
  20
13512.121226
  30
0.000000
  11
-7337.421792
  21
13512.121226
  31
0.000000
   0
LINE
   5
F8
 100
AcDbEntity
   8
0
   6
DEFAULT
 100
AcDbLine
  10
-7337.421792
  20
13612.121226
  30
0.000000
  11
-7337.421792
  21
12894.253419
  31
0.000000
   0
TEXT
   5
F9
 100
AcDbEntity
   8
0
 100
AcDbText
  40
160.000000
   1
20
   7
ゴシック50
  10
-7962.421792
  20
13557.121226
  30
0.000000
  72
1
  11
-7837.421792
  21
13512.121226
  31
0.000000
 100
AcDbText
  73
1
   0
LINE
   5
FA
 100
AcDbEntity
   8
0
   6
BLANK
 100
AcDbLine
  10
-7337.421792
  20
13512.121226
  30
0.000000
  11
-6837.421792
  21
13512.121226
  31
0.000000
   0
LINE
   5
FB
 100
AcDbEntity
   8
0
   6
ポイント01
 100
AcDbLine
  10
-7337.421792
  20
13512.121226
  30
0.000000
  11
-6837.421792
  21
13512.121226
  31
0.000000
   0
LINE
   5
FC
 100
AcDbEntity
   8
0
   6
DEFAULT
 100
AcDbLine
  10
-6837.421792
  20
13612.121226
  30
0.000000
  11
-6837.421792
  21
13315.808304
  31
0.000000
   0
TEXT
   5
FD
 100
AcDbEntity
   8
0
 100
AcDbText
  40
160.000000
   1
10
   7
ゴシック50
  10
-7212.421792
  20
13557.121226
  30
0.000000
  72
1
  11
-7087.421792
  21
13512.121226
  31
0.000000
 100
AcDbText
  73
1
   0
ENDBLK
   5
FE
 100
AcDbEntity
   8
躯体
 100
AcDbBlockEnd
   0
BLOCK
   5
FF
 100
AcDbEntity
   8
躯体
 100
AcDbBlockBegin
   2
NO_NAME_DIMCHAIN$8
  70
0
  10
0.000000
  20
0.000000
  30
0.000000
   1

   3
NO_NAME_DIMCHAIN$8
   0
ATTDEF
   5
100
 100
AcDbEntity
   8
0
 100
AcDbText
  10
0.000000
  20
0.000000
  30
0.000000
  40
2.500000
   1
no:name:DIMCHAIN
 100
AcDbAttributeDefinition
   3

   2
ISI_MICROGDS_OBJECT_NAME
  70
3
   0
LINE
   5
101
 100
AcDbEntity
   8
0
   6
BLANK
 100
AcDbLine
  10
-9837.421792
  20
8158.056123
  30
0.000000
  11
-6837.421792
  21
8158.056123
  31
0.000000
   0
LINE
   5
102
 100
AcDbEntity
   8
0
   6
ポイント01
 100
AcDbLine
  10
-9837.421792
  20
8158.056123
  30
0.000000
  11
-6837.421792
  21
8158.056123
  31
0.000000
   0
LINE
   5
103
 100
AcDbEntity
   8
0
   6
DEFAULT
 100
AcDbLine
  10
-6837.421792
  20
8058.056123
  30
0.000000
  11
-6837.421792
  21
8237.694503
  31
0.000000
   0
TEXT
   5
104
 100
AcDbEntity
   8
0
 100
AcDbText
  40
160.000000
   1
60
   7
ゴシック50
  10
-8462.421792
  20
8203.056123
  30
0.000000
  72
1
  11
-8337.421792
  21
8158.056123
  31
0.000000
 100
AcDbText
  73
1
   0
ENDBLK
   5
105
 100
AcDbEntity
   8
躯体
 100
AcDbBlockEnd
   0
BLOCK
   5
106
 100
AcDbEntity
   8
躯体
 100
AcDbBlockBegin
   2
NO_NAME_DIMCHAIN$9
  70
0
  10
0.000000
  20
0.000000
  30
0.000000
   1

   3
NO_NAME_DIMCHAIN$9
   0
ATTDEF
   5
107
 100
AcDbEntity
   8
0
 100
AcDbText
  10
0.000000
  20
0.000000
  30
0.000000
  40
2.500000
   1
no:name:DIMCHAIN
 100
AcDbAttributeDefinition
   3

   2
ISI_MICROGDS_OBJECT_NAME
  70
3
   0
LINE
   5
108
 100
AcDbEntity
   8
0
   6
BLANK
 100
AcDbLine
  10
10162.578208
  20
13788.206100
  30
0.000000
  11
13162.578208
  21
13788.206100
  31
0.000000
   0
LINE
   5
109
 100
AcDbEntity
   8
0
   6
ポイント01
 100
AcDbLine
  10
10162.578208
  20
13788.206100
  30
0.000000
  11
13162.578208
  21
13788.206100
  31
0.000000
   0
TEXT
   5
10A
 100
AcDbEntity
   8
0
 100
AcDbText
  40
160.000000
   1
60
   7
ゴシック50
  10
11537.578208
  20
13833.206100
  30
0.000000
  72
1
  11
11662.578208
  21
13788.206100
  31
0.000000
 100
AcDbText
  73
1
   0
LINE
   5
10B
 100
AcDbEntity
   8
0
   6
DEFAULT
 100
AcDbLine
  10
13162.578208
  20
13820.625000
  30
0.000000
  11
13162.578208
  21
13308.292287
  31
0.000000
   0
LINE
   5
10C
 100
AcDbEntity
   8
0
   6
DEFAULT
 100
AcDbLine
  10
10162.578208
  20
13820.625000
  30
0.000000
  11
10162.578208
  21
12894.253419
  31
0.000000
   0
ENDBLK
   5
10D
 100
AcDbEntity
   8
躯体
 100
AcDbBlockEnd
   0
BLOCK
   5
10E
 100
AcDbEntity
   8
躯体
 100
AcDbBlockBegin
   2
NO_NAME_DIMCHAIN$10
  70
0
  10
0.000000
  20
0.000000
  30
0.000000
   1

   3
NO_NAME_DIMCHAIN$10
   0
ATTDEF
   5
10F
 100
AcDbEntity
   8
0
 100
AcDbText
  10
0.000000
  20
0.000000
  30
0.000000
  40
2.500000
   1
no:name:DIMCHAIN
 100
AcDbAttributeDefinition
   3

   2
ISI_MICROGDS_OBJECT_NAME
  70
3
   0
TEXT
   5
110
 100
AcDbEntity
   8
0
 100
AcDbText
  40
160.000000
   1
???
   7
ゴシック50
  10
13275.078208
  20
16366.856521
  30
0.000000
  72
1
  11
13462.578208
  21
16321.856521
  31
0.000000
 100
AcDbText
  73
1
   0
ENDBLK
   5
111
 100
AcDbEntity
   8
躯体
 100
AcDbBlockEnd
   0
BLOCK
   5
112
 100
AcDbEntity
   8
躯体
 100
AcDbBlockBegin
   2
NO_NAME_DIMCHAIN$11
  70
0
  10
0.000000
  20
0.000000
  30
0.000000
   1

   3
NO_NAME_DIMCHAIN$11
   0
ATTDEF
   5
113
 100
AcDbEntity
   8
0
 100
AcDbText
  10
0.000000
  20
0.000000
  30
0.000000
  40
2.500000
   1
no:name:DIMCHAIN
 100
AcDbAttributeDefinition
   3

   2
ISI_MICROGDS_OBJECT_NAME
  70
3
   0
LINE
   5
114
 100
AcDbEntity
   8
0
   6
BLANK
 100
AcDbLine
  10
-12844.253419
  20
9715.810858
  30
0.000000
  11
-9844.253419
  21
9715.810858
  31
0.000000
   0
LINE
   5
115
 100
AcDbEntity
   8
0
   6
ポイント01
 100
AcDbLine
  10
-12844.253419
  20
9715.810858
  30
0.000000
  11
-9844.253419
  21
9715.810858
  31
0.000000
   0
TEXT
   5
116
 100
AcDbEntity
   8
0
 100
AcDbText
  40
160.000000
   1
60
   7
ゴシック50
  10
-11469.253419
  20
9760.810858
  30
0.000000
  72
1
  11
-11344.253419
  21
9715.810858
  31
0.000000
 100
AcDbText
  73
1
   0
ENDBLK
   5
117
 100
AcDbEntity
   8
躯体
 100
AcDbBlockEnd
   0
BLOCK
   5
118
 100
AcDbEntity
   8
躯体
 100
AcDbBlockBegin
   2
NO_NAME_DIMCHAIN$12
  70
0
  10
0.000000
  20
0.000000
  30
0.000000
   1

   3
NO_NAME_DIMCHAIN$12
   0
ATTDEF
   5
119
 100
AcDbEntity
   8
0
 100
AcDbText
  10
0.000000
  20
0.000000
  30
0.000000
  40
2.500000
   1
no:name:DIMCHAIN
 100
AcDbAttributeDefinition
   3

   2
ISI_MICROGDS_OBJECT_NAME
  70
3
   0
LINE
   5
11A
 100
AcDbEntity
   8
0
   6
BLANK
 100
AcDbLine
  10
-11794.253419
  20
14882.470540
  30
0.000000
  11
-10894.253419
  21
14882.470540
  31
0.000000
   0
LINE
   5
11B
 100
AcDbEntity
   8
0
   6
ポイント01
 100
AcDbLine
  10
-11794.253419
  20
14882.470540
  30
0.000000
  11
-10894.253419
  21
14882.470540
  31
0.000000
   0
TEXT
   5
11C
 100
AcDbEntity
   8
0
 100
AcDbText
  40
160.000000
   1
18
   7
ゴシック50
  10
-11469.253419
  20
14927.470540
  30
0.000000
  72
1
  11
-11344.253419
  21
14882.470540
  31
0.000000
 100
AcDbText
  73
1
   0
ENDBLK
   5
11D
 100
AcDbEntity
   8
躯体
 100
AcDbBlockEnd
   0
BLOCK
   5
11E
 100
AcDbEntity
   8
躯体
 100
AcDbBlockBegin
   2
NO_NAME_DIMCHAIN$13
  70
0
  10
0.000000
  20
0.000000
  30
0.000000
   1

   3
NO_NAME_DIMCHAIN$13
   0
ATTDEF
   5
11F
 100
AcDbEntity
   8
0
 100
AcDbText
  10
0.000000
  20
0.000000
  30
0.000000
  40
2.500000
   1
no:name:DIMCHAIN
 100
AcDbAttributeDefinition
   3

   2
ISI_MICROGDS_OBJECT_NAME
  70
3
   0
LINE
   5
120
 100
AcDbEntity
   8
0
   6
DEFAULT
 100
AcDbLine
  10
-7594.253419
  20
16638.451207
  30
0.000000
  11
-7594.253419
  21
13812.578208
  31
0.000000
   0
TEXT
   5
121
 100
AcDbEntity
   8
0
 100
AcDbText
  40
160.000000
   1
???
   7
ゴシック50
  10
-11531.753419
  20
16583.451207
  30
0.000000
  72
1
  11
-11344.253419
  21
16538.451207
  31
0.000000
 100
AcDbText
  73
1
   0
LINE
   5
122
 100
AcDbEntity
   8
0
   6
BLANK
 100
AcDbLine
  10
-13820.625000
  20
16538.451207
  30
0.000000
  11
-7594.253419
  21
16538.451207
  31
0.000000
   0
LINE
   5
123
 100
AcDbEntity
   8
0
   6
ポイント01
 100
AcDbLine
  10
-13820.625000
  20
16538.451207
  30
0.000000
  11
-7594.253419
  21
16538.451207
  31
0.000000
   0
ENDBLK
   5
124
 100
AcDbEntity
   8
躯体
 100
AcDbBlockEnd
   0
BLOCK
   5
125
 100
AcDbEntity
   8
躯体
 100
AcDbBlockBegin
   2
NO_NAME_DIMCHAIN$14
  70
0
  10
0.000000
  20
0.000000
  30
0.000000
   1

   3
NO_NAME_DIMCHAIN$14
   0
ATTDEF
   5
126
 100
AcDbEntity
   8
0
 100
AcDbText
  10
0.000000
  20
0.000000
  30
0.000000
  40
2.500000
   1
no:name:DIMCHAIN
 100
AcDbAttributeDefinition
   3

   2
ISI_MICROGDS_OBJECT_NAME
  70
3
   0
TEXT
   5
127
 100
AcDbEntity
   8
0
 100
AcDbText
  40
160.000000
   1
???
   7
ゴシック50
  10
-7161.854106
  20
23140.424591
  30
0.000000
  72
1
  11
-6974.354106
  21
23095.424591
  31
0.000000
 100
AcDbText
  73
1
   0
ENDBLK
   5
128
 100
AcDbEntity
   8
躯体
 100
AcDbBlockEnd
   0
BLOCK
   5
129
 100
AcDbEntity
   8
躯体
 100
AcDbBlockBegin
   2
NO_NAME_DIMCHAIN$15
  70
0
  10
0.000000
  20
0.000000
  30
0.000000
   1

   3
NO_NAME_DIMCHAIN$15
   0
ATTDEF
   5
12A
 100
AcDbEntity
   8
0
 100
AcDbText
  10
0.000000
  20
0.000000
  30
0.000000
  40
2.500000
   1
no:name:DIMCHAIN
 100
AcDbAttributeDefinition
   3

   2
ISI_MICROGDS_OBJECT_NAME
  70
3
   0
TEXT
   5
12B
 100
AcDbEntity
   8
0
 100
AcDbText
  40
160.000000
   1
???
   7
ゴシック50
  10
-21049.277733
  20
-4004.856941
  30
0.000000
  72
1
  11
-20861.777733
  21
-4049.856941
  31
0.000000
 100
AcDbText
  73
1
   0
ENDBLK
   5
12C
 100
AcDbEntity
   8
躯体
 100
AcDbBlockEnd
   0
BLOCK
   5
12D
 100
AcDbEntity
   8
躯体
 100
AcDbBlockBegin
   2
NO_NAME_DIMCHAIN$16
  70
0
  10
0.000000
  20
0.000000
  30
0.000000
   1

   3
NO_NAME_DIMCHAIN$16
   0
ATTDEF
   5
12E
 100
AcDbEntity
   8
0
 100
AcDbText
  10
0.000000
  20
0.000000
  30
0.000000
  40
2.500000
   1
no:name:DIMCHAIN
 100
AcDbAttributeDefinition
   3

   2
ISI_MICROGDS_OBJECT_NAME
  70
3
   0
LINE
   5
12F
 100
AcDbEntity
   8
0
   6
DEFAULT
 100
AcDbLine
  10
-18883.876615
  20
-8235.222548
  30
0.000000
  11
-18883.876615
  21
-7649.275804
  31
0.000000
   0
TEXT
   5
130
 100
AcDbEntity
   8
0
 100
AcDbText
  40
160.000000
   1
???
   7
ゴシック50
  10
-20821.326535
  20
-8090.222548
  30
0.000000
  72
1
  11
-20633.826535
  21
-8135.222548
  31
0.000000
 100
AcDbText
  73
1
   0
LINE
   5
131
 100
AcDbEntity
   8
0
   6
BLANK
 100
AcDbLine
  10
-19656.352983
  20
-8135.222548
  30
0.000000
  11
-18883.876615
  21
-8135.222548
  31
0.000000
   0
LINE
   5
132
 100
AcDbEntity
   8
0
   6
ポイント01
 100
AcDbLine
  10
-19656.352983
  20
-8135.222548
  30
0.000000
  11
-18883.876615
  21
-8135.222548
  31
0.000000
   0
ENDBLK
   5
133
 100
AcDbEntity
   8
躯体
 100
AcDbBlockEnd
   0
BLOCK
   5
134
 100
AcDbEntity
   8
躯体
 100
AcDbBlockBegin
   2
NO_NAME_DIMCHAIN$17
  70
0
  10
0.000000
  20
0.000000
  30
0.000000
   1

   3
NO_NAME_DIMCHAIN$17
   0
ATTDEF
   5
135
 100
AcDbEntity
   8
0
 100
AcDbText
  10
0.000000
  20
0.000000
  30
0.000000
  40
2.500000
   1
no:name:DIMCHAIN
 100
AcDbAttributeDefinition
   3

   2
ISI_MICROGDS_OBJECT_NAME
  70
3
   0
LINE
   5
136
 100
AcDbEntity
   8
0
   6
BLANK
 100
AcDbLine
  10
-8067.282847
  20
-4.921445
  30
0.000000
  11
-6268.671309
  21
-4.921445
  31
0.000000
   0
LINE
   5
137
 100
AcDbEntity
   8
0
   6
ポイント01
 100
AcDbLine
  10
-8067.282847
  20
-4.921445
  30
0.000000
  11
-6268.671309
  21
-4.921445
  31
0.000000
   0
LINE
   5
138
 100
AcDbEntity
   8
0
   6
DEFAULT
 100
AcDbLine
  10
-6268.671309
  20
95.078555
  30
0.000000
  11
-6268.671309
  21
-129.161312
  31
0.000000
   0
TEXT
   5
139
 100
AcDbEntity
   8
0
 100
AcDbText
  40
160.000000
   1
36
   7
ゴシック50
  10
-7292.977078
  20
40.078555
  30
0.000000
  72
1
  11
-7167.977078
  21
-4.921445
  31
0.000000
 100
AcDbText
  73
1
   0
ENDBLK
   5
13A
 100
AcDbEntity
   8
躯体
 100
AcDbBlockEnd
   0
BLOCK
   5
13B
 100
AcDbEntity
   8
躯体
 100
AcDbBlockBegin
   2
NO_NAME_DIMCHAIN$18
  70
0
  10
0.000000
  20
0.000000
  30
0.000000
   1

   3
NO_NAME_DIMCHAIN$18
   0
ATTDEF
   5
13C
 100
AcDbEntity
   8
0
 100
AcDbText
  10
0.000000
  20
0.000000
  30
0.000000
  40
2.500000
   1
no:name:DIMCHAIN
 100
AcDbAttributeDefinition
   3

   2
ISI_MICROGDS_OBJECT_NAME
  70
3
   0
TEXT
   5
13D
 100
AcDbEntity
   8
0
 100
AcDbText
  40
160.000000
   1
???
   7
ゴシック50
  10
-13244.544572
  20
-8912.556533
  30
0.000000
  72
1
  11
-13057.044572
  21
-8957.556533
  31
0.000000
 100
AcDbText
  73
1
   0
ENDBLK
   5
13E
 100
AcDbEntity
   8
躯体
 100
AcDbBlockEnd
   0
BLOCK
   5
13F
 100
AcDbEntity
   8
躯体
 100
AcDbBlockBegin
   2
NO_NAME_DIMCHAIN$19
  70
0
  10
0.000000
  20
0.000000
  30
0.000000
   1

   3
NO_NAME_DIMCHAIN$19
   0
ATTDEF
   5
140
 100
AcDbEntity
   8
0
 100
AcDbText
  10
0.000000
  20
0.000000
  30
0.000000
  40
2.500000
   1
no:name:DIMCHAIN
 100
AcDbAttributeDefinition
   3

   2
ISI_MICROGDS_OBJECT_NAME
  70
3
   0
LINE
   5
141
 100
AcDbEntity
   8
0
   6
BLANK
 100
AcDbLine
  10
-11944.253419
  20
-7116.409765
  30
0.000000
  11
-10744.253419
  21
-7116.409765
  31
0.000000
   0
LINE
   5
142
 100
AcDbEntity
   8
0
   6
ポイント01
 100
AcDbLine
  10
-11944.253419
  20
-7116.409765
  30
0.000000
  11
-10744.253419
  21
-7116.409765
  31
0.000000
   0
LINE
   5
143
 100
AcDbEntity
   8
0
   6
DEFAULT
 100
AcDbLine
  10
-10744.253419
  20
-7016.409765
  30
0.000000
  11
-10744.253419
  21
-7287.421792
  31
0.000000
   0
LINE
   5
144
 100
AcDbEntity
   8
0
   6
DEFAULT
 100
AcDbLine
  10
-11944.253419
  20
-7016.409765
  30
0.000000
  11
-11944.253419
  21
-7287.421792
  31
0.000000
   0
TEXT
   5
145
 100
AcDbEntity
   8
0
 100
AcDbText
  40
160.000000
   1
24
   7
ゴシック50
  10
-11469.253419
  20
-7071.409765
  30
0.000000
  72
1
  11
-11344.253419
  21
-7116.409765
  31
0.000000
 100
AcDbText
  73
1
   0
ENDBLK
   5
146
 100
AcDbEntity
   8
躯体
 100
AcDbBlockEnd
   0
BLOCK
   5
147
 100
AcDbEntity
   8
躯体
 100
AcDbBlockBegin
   2
NO_NAME_DIMCHAIN$20
  70
0
  10
0.000000
  20
0.000000
  30
0.000000
   1

   3
NO_NAME_DIMCHAIN$20
   0
ATTDEF
   5
148
 100
AcDbEntity
   8
0
 100
AcDbText
  10
0.000000
  20
0.000000
  30
0.000000
  40
2.500000
   1
no:name:DIMCHAIN
 100
AcDbAttributeDefinition
   3

   2
ISI_MICROGDS_OBJECT_NAME
  70
3
   0
LINE
   5
149
 100
AcDbEntity
   8
0
   6
BLANK
 100
AcDbLine
  10
-12244.253419
  20
-8597.381537
  30
0.000000
  11
-10444.253419
  21
-8597.381537
  31
0.000000
   0
LINE
   5
14A
 100
AcDbEntity
   8
0
   6
ポイント01
 100
AcDbLine
  10
-12244.253419
  20
-8597.381537
  30
0.000000
  11
-10444.253419
  21
-8597.381537
  31
0.000000
   0
LINE
   5
14B
 100
AcDbEntity
   8
0
   6
DEFAULT
 100
AcDbLine
  10
-10444.253419
  20
-8697.381537
  30
0.000000
  11
-10444.253419
  21
-8387.421792
  31
0.000000
   0
LINE
   5
14C
 100
AcDbEntity
   8
0
   6
DEFAULT
 100
AcDbLine
  10
-12244.253419
  20
-8697.381537
  30
0.000000
  11
-12244.253419
  21
-8387.421792
  31
0.000000
   0
TEXT
   5
14D
 100
AcDbEntity
   8
0
 100
AcDbText
  40
160.000000
   1
36
   7
ゴシック50
  10
-11469.253419
  20
-8552.381537
  30
0.000000
  72
1
  11
-11344.253419
  21
-8597.381537
  31
0.000000
 100
AcDbText
  73
1
   0
ENDBLK
   5
14E
 100
AcDbEntity
   8
躯体
 100
AcDbBlockEnd
   0
BLOCK
   5
14F
 100
AcDbEntity
   8
躯体
 100
AcDbBlockBegin
   2
NO_NAME_DIMCHAIN$21
  70
0
  10
0.000000
  20
0.000000
  30
0.000000
   1

   3
NO_NAME_DIMCHAIN$21
   0
ATTDEF
   5
150
 100
AcDbEntity
   8
0
 100
AcDbText
  10
0.000000
  20
0.000000
  30
0.000000
  40
2.500000
   1
no:name:DIMCHAIN
 100
AcDbAttributeDefinition
   3

   2
ISI_MICROGDS_OBJECT_NAME
  70
3
   0
TEXT
   5
151
 100
AcDbEntity
   8
0
 100
AcDbText
  40
160.000000
   1
殳
   7
ゴシック50
  10
-22320.712858
  20
-484.578423
  30
0.000000
  72
1
  11
-22195.712858
  21
-529.578423
  31
0.000000
 100
AcDbText
  73
1
   0
ENDBLK
   5
152
 100
AcDbEntity
   8
躯体
 100
AcDbBlockEnd
   0
BLOCK
   5
153
 100
AcDbEntity
   8
躯体
 100
AcDbBlockBegin
   2
NO_NAME_DIMCHAIN$22
  70
0
  10
0.000000
  20
0.000000
  30
0.000000
   1

   3
NO_NAME_DIMCHAIN$22
   0
ATTDEF
   5
154
 100
AcDbEntity
   8
0
 100
AcDbText
  10
0.000000
  20
0.000000
  30
0.000000
  40
2.500000
   1
no:name:DIMCHAIN
 100
AcDbAttributeDefinition
   3

   2
ISI_MICROGDS_OBJECT_NAME
  70
3
   0
TEXT
   5
155
 100
AcDbEntity
   8
0
 100
AcDbText
  40
160.000000
   1
小殳
   7
ゴシック50
  10
-19337.797852
  20
2470.358562
  30
0.000000
  72
1
  11
-19087.797852
  21
2425.358562
  31
0.000000
 100
AcDbText
  73
1
   0
ENDBLK
   5
156
 100
AcDbEntity
   8
躯体
 100
AcDbBlockEnd
   0
BLOCK
   5
157
 100
AcDbEntity
   8
躯体
 100
AcDbBlockBegin
   2
NO_NAME_DIMCHAIN$23
  70
0
  10
0.000000
  20
0.000000
  30
0.000000
   1

   3
NO_NAME_DIMCHAIN$23
   0
ATTDEF
   5
158
 100
AcDbEntity
   8
0
 100
AcDbText
  10
0.000000
  20
0.000000
  30
0.000000
  40
2.500000
   1
no:name:DIMCHAIN
 100
AcDbAttributeDefinition
   3

   2
ISI_MICROGDS_OBJECT_NAME
  70
3
   0
TEXT
   5
159
 100
AcDbEntity
   8
0
 100
AcDbText
  40
160.000000
   1
勾
   7
ゴシック50
  10
2228.647683
  20
17397.622086
  30
0.000000
  72
1
  11
2353.647683
  21
17352.622086
  31
0.000000
 100
AcDbText
  73
1
   0
ENDBLK
   5
15A
 100
AcDbEntity
   8
躯体
 100
AcDbBlockEnd
   0
BLOCK
   5
15B
 100
AcDbEntity
   8
躯体
 100
AcDbBlockBegin
   2
NO_NAME_DIMCHAIN$24
  70
0
  10
0.000000
  20
0.000000
  30
0.000000
   1

   3
NO_NAME_DIMCHAIN$24
   0
ATTDEF
   5
15C
 100
AcDbEntity
   8
0
 100
AcDbText
  10
0.000000
  20
0.000000
  30
0.000000
  40
2.500000
   1
no:name:DIMCHAIN
 100
AcDbAttributeDefinition
   3

   2
ISI_MICROGDS_OBJECT_NAME
  70
3
   0
TEXT
   5
15D
 100
AcDbEntity
   8
0
 100
AcDbText
  40
160.000000
   1
玄
   7
ゴシック50
  10
-18822.065759
  20
13531.606735
  30
0.000000
  72
1
  11
-18697.065759
  21
13486.606735
  31
0.000000
 100
AcDbText
  73
1
   0
ENDBLK
   5
15E
 100
AcDbEntity
   8
躯体
 100
AcDbBlockEnd
   0
BLOCK
   5
15F
 100
AcDbEntity
   8
躯体
 100
AcDbBlockBegin
   2
NO_NAME_DIMCHAIN$25
  70
0
  10
0.000000
  20
0.000000
  30
0.000000
   1

   3
NO_NAME_DIMCHAIN$25
   0
ATTDEF
   5
160
 100
AcDbEntity
   8
0
 100
AcDbText
  10
0.000000
  20
0.000000
  30
0.000000
  40
2.500000
   1
no:name:DIMCHAIN
 100
AcDbAttributeDefinition
   3

   2
ISI_MICROGDS_OBJECT_NAME
  70
3
   0
TEXT
   5
161
 100
AcDbEntity
   8
0
 100
AcDbText
  40
160.000000
   1
長玄
   7
ゴシック50
  10
-19808.326586
  20
12892.509941
  30
0.000000
  72
1
  11
-19558.326586
  21
12847.509941
  31
0.000000
 100
AcDbText
  73
1
   0
TEXT
   5
162
 100
AcDbEntity
   8
0
 100
AcDbText
  40
160.000000
   1
短玄
   7
ゴシック50
  10
-15582.194889
  20
12892.509941
  30
0.000000
  72
1
  11
-15332.194889
  21
12847.509941
  31
0.000000
 100
AcDbText
  73
1
   0
ENDBLK
   5
163
 100
AcDbEntity
   8
躯体
 100
AcDbBlockEnd
   0
BLOCK
   5
164
 100
AcDbEntity
   8
躯体
 100
AcDbBlockBegin
   2
NO_NAME_DIMCHAIN$26
  70
0
  10
0.000000
  20
0.000000
  30
0.000000
   1

   3
NO_NAME_DIMCHAIN$26
   0
ATTDEF
   5
165
 100
AcDbEntity
   8
0
 100
AcDbText
  10
0.000000
  20
0.000000
  30
0.000000
  40
2.500000
   1
no:name:DIMCHAIN
 100
AcDbAttributeDefinition
   3

   2
ISI_MICROGDS_OBJECT_NAME
  70
3
   0
TEXT
   5
166
 100
AcDbEntity
   8
0
 100
AcDbText
  40
160.000000
   1
中勾
   7
ゴシック50
  10
-10650.690662
  20
-17550.294456
  30
0.000000
  72
1
  11
-10400.690662
  21
-17595.294456
  31
0.000000
 100
AcDbText
  73
1
   0
ENDBLK
   5
167
 100
AcDbEntity
   8
躯体
 100
AcDbBlockEnd
   0
BLOCK
   5
168
 100
AcDbEntity
   8
躯体
 100
AcDbBlockBegin
   2
NO_NAME_DIMCHAIN$27
  70
0
  10
0.000000
  20
0.000000
  30
0.000000
   1

   3
NO_NAME_DIMCHAIN$27
   0
ATTDEF
   5
169
 100
AcDbEntity
   8
0
 100
AcDbText
  10
0.000000
  20
0.000000
  30
0.000000
  40
2.500000
   1
no:name:DIMCHAIN
 100
AcDbAttributeDefinition
   3

   2
ISI_MICROGDS_OBJECT_NAME
  70
3
   0
TEXT
   5
16A
 100
AcDbEntity
   8
0
 100
AcDbText
  40
160.000000
   1
小中勾
   7
ゴシック50
  10
-11841.545202
  20
-15692.696972
  30
0.000000
  72
1
  11
-11466.545202
  21
-15737.696972
  31
0.000000
 100
AcDbText
  73
1
   0
ENDBLK
   5
16B
 100
AcDbEntity
   8
躯体
 100
AcDbBlockEnd
   0
BLOCK
   5
16C
 100
AcDbEntity
   8
間仕切
 100
AcDbBlockBegin
   2
NO_NAME$4
  70
0
  10
0.000000
  20
0.000000
  30
0.000000
   1

   3
NO_NAME$4
   0
ATTDEF
   5
16D
 100
AcDbEntity
   8
0
 100
AcDbText
  10
0.000000
  20
0.000000
  30
0.000000
  40
2.500000
   1
no:name
 100
AcDbAttributeDefinition
   3

   2
ISI_MICROGDS_OBJECT_NAME
  70
3
   0
LINE
   5
16E
 100
AcDbEntity
   8
0
   6
実線01
 100
AcDbLine
  10
6814.245702
  20
-12883.017078
  30
0.000000
  11
8282.101875
  21
-12819.044279
  31
0.000000
   0
LINE
   5
16F
 100
AcDbEntity
   8
0
   6
実線01
 100
AcDbLine
  10
6414.279142
  20
-3706.105350
  30
0.000000
  11
7882.149358
  21
-3642.131939
  31
0.000000
   0
LINE
   5
170
 100
AcDbEntity
   8
0
   6
実線01
 100
AcDbLine
  10
6011.088503
  20
-2900.616783
  30
0.000000
  11
6414.279142
  21
-3706.105350
  31
0.000000
   0
LWPOLYLINE
   5
171
 100
AcDbEntity
   8
0
   6
実線01
 100
AcDbPolyline
  90
3
  70
0
  43
0.000000
  38
0.000000
  10
3415.035433
  20
-5207.389215
  10
10997.860090
  20
-4876.910979
  10
12799.820314
  20
-3975.316488
   0
LINE
   5
172
 100
AcDbEntity
   8
0
   6
実線01
 100
AcDbLine
  10
3011.844794
  20
-4401.900648
  30
0.000000
  11
3415.035433
  21
-5207.389215
  31
0.000000
   0
LINE
   5
173
 100
AcDbEntity
   8
0
   6
実線01
 100
AcDbLine
  10
2425.914289
  20
9042.277509
  30
0.000000
  11
12213.889808
  21
9468.861669
  31
0.000000
   0
LINE
   5
174
 100
AcDbEntity
   8
0
   6
実線01
 100
AcDbLine
  10
3339.858851
  20
-11928.184697
  30
0.000000
  11
13127.834370
  21
-11501.600538
  31
0.000000
   0
LINE
   5
175
 100
AcDbEntity
   8
0
   6
実線01
 100
AcDbLine
  10
3743.363595
  20
-12740.880410
  30
0.000000
  11
11328.693655
  21
-12410.292982
  31
0.000000
   0
LINE
   5
176
 100
AcDbEntity
   8
0
   6
実線01
 100
AcDbLine
  10
-1787.277892
  20
-14494.594218
  30
0.000000
  11
3339.501824
  21
-11928.363389
  31
0.000000
   0
LINE
   5
177
 100
AcDbEntity
   8
0
   6
実線01
 100
AcDbLine
  10
240.403524
  20
-14494.301568
  30
0.000000
  11
3743.006569
  21
-12741.059102
  31
0.000000
   0
LINE
   5
178
 100
AcDbEntity
   8
0
   6
実線01
 100
AcDbLine
  10
911.977293
  20
-15837.421965
  30
0.000000
  11
6813.888675
  21
-12883.195770
  31
0.000000
   0
LINE
   5
179
 100
AcDbEntity
   8
0
   6
実線01
 100
AcDbLine
  10
3339.858851
  20
-11928.184697
  30
0.000000
  11
3743.363595
  21
-12740.880410
  31
0.000000
   0
LINE
   5
17A
 100
AcDbEntity
   8
0
   6
実線01
 100
AcDbLine
  10
-1100.483931
  20
-15837.421952
  30
0.000000
  11
6423.715894
  21
-12071.152448
  31
0.000000
   0
LINE
   5
17B
 100
AcDbEntity
   8
0
   6
実線01
 100
AcDbLine
  10
5211.191133
  20
15453.032082
  30
0.000000
  11
5800.692868
  21
14275.333836
  31
0.000000
   0
LINE
   5
17C
 100
AcDbEntity
   8
0
   6
実線01
 100
AcDbLine
  10
-4850.483819
  20
-8337.421792
  30
0.000000
  11
6010.731477
  21
-2900.795475
  31
0.000000
   0
LINE
   5
17D
 100
AcDbEntity
   8
0
   6
実線01
 100
AcDbLine
  10
-2838.099494
  20
-8337.421792
  30
0.000000
  11
6413.929766
  21
-3706.280212
  31
0.000000
   0
LINE
   5
17E
 100
AcDbEntity
   8
0
   6
実線01
 100
AcDbLine
  10
2614.489939
  20
13161.130868
  30
0.000000
  11
10199.819998
  21
13491.718296
  31
0.000000
   0
LINE
   5
17F
 100
AcDbEntity
   8
0
   6
実線01
 100
AcDbLine
  10
5613.733648
  20
14662.414733
  30
0.000000
  11
7081.603864
  21
14726.388144
  31
0.000000
   0
LINE
   5
180
 100
AcDbEntity
   8
0
   6
実線01
 100
AcDbLine
  10
3011.844794
  20
-4401.900648
  30
0.000000
  11
12799.820314
  21
-3975.316488
  31
0.000000
   0
LINE
   5
181
 100
AcDbEntity
   8
0
   6
実線01
 100
AcDbLine
  10
6011.088503
  20
-2900.616783
  30
0.000000
  11
10999.988010
  21
-4877.754289
  31
0.000000
   0
LINE
   5
182
 100
AcDbEntity
   8
0
   6
実線01
 100
AcDbLine
  10
-12350.253542
  20
6662.578208
  30
0.000000
  11
5210.834106
  21
15452.853390
  31
0.000000
   0
LINE
   5
183
 100
AcDbEntity
   8
0
   6
実線01
 100
AcDbLine
  10
-12844.253419
  20
6674.578208
  30
0.000000
  11
-9844.253419
  21
6674.578208
  31
0.000000
   0
LINE
   5
184
 100
AcDbEntity
   8
0
   6
実線01
 100
AcDbLine
  10
-12844.253419
  20
6662.578208
  30
0.000000
  11
-9844.253419
  21
6662.578208
  31
0.000000
   0
LINE
   5
185
 100
AcDbEntity
   8
0
   6
実線01
 100
AcDbLine
  10
-10344.253419
  20
6674.578208
  30
0.000000
  11
5607.942451
  21
14659.515945
  31
0.000000
   0
LINE
   5
186
 100
AcDbEntity
   8
0
   6
実線01
 100
AcDbLine
  10
5613.947793
  20
14647.518557
  30
0.000000
  11
-10338.253296
  21
6662.578208
  31
0.000000
   0
LINE
   5
187
 100
AcDbEntity
   8
0
   6
実線01
 100
AcDbLine
  10
-10844.253419
  20
3650.117151
  30
0.000000
  11
5230.253095
  21
11696.277987
  31
0.000000
   0
LINE
   5
188
 100
AcDbEntity
   8
0
   6
実線01
 100
AcDbLine
  10
3993.574596
  20
9826.976391
  30
0.000000
  11
-10344.253419
  21
2650.117173
  31
0.000000
   0
LINE
   5
189
 100
AcDbEntity
   8
0
   6
実線01
 100
AcDbLine
  10
5211.191133
  20
15453.032082
  30
0.000000
  11
5371.831179
  21
11767.145465
  31
0.000000
   0
LINE
   5
18A
 100
AcDbEntity
   8
0
   6
実線01
 100
AcDbLine
  10
2197.942308
  20
14273.095658
  30
0.000000
  11
2426.852848
  21
9020.742253
  31
0.000000
   0
LINE
   5
18B
 100
AcDbEntity
   8
0
   6
実線01
 100
AcDbLine
  10
-5533.985384
  20
11786.104301
  30
0.000000
  11
6814.168945
  21
-12882.864133
  31
0.000000
   0
ENDBLK
   5
18C
 100
AcDbEntity
   8
間仕切
 100
AcDbBlockEnd
   0
ENDSEC
   0
SECTION
   2
ENTITIES
   0
INSERT
   5
18D
 100
AcDbEntity
   8
図面枠
 100
AcDbBlockReference
   2
NO_NAME
  10
0.000000
  20
0.000000
  30
0.000000
   0
INSERT
   5
18E
 100
AcDbEntity
   8
図面枠
 100
AcDbBlockReference
   2
NO_NAME$0
  10
0.000000
  20
0.000000
  30
0.000000
   0
INSERT
   5
18F
 100
AcDbEntity
   8
図面枠
 100
AcDbBlockReference
   2
NO_NAME$1
  10
0.000000
  20
0.000000
  30
0.000000
   0
INSERT
   5
190
 100
AcDbEntity
   8
図面枠
 100
AcDbBlockReference
   2
NO_NAME$2
  10
0.000000
  20
0.000000
  30
0.000000
   0
INSERT
   5
191
 100
AcDbEntity
   8
図面枠
 100
AcDbBlockReference
   2
NO_NAME$3
  10
0.000000
  20
0.000000
  30
0.000000
   0
INSERT
   5
192
 100
AcDbEntity
   8
図面枠
 100
AcDbBlockReference
   2
NO_NAME_HATCH
  10
0.000000
  20
0.000000
  30
0.000000
  50
60.000000
   0
INSERT
   5
193
 100
AcDbEntity
   8
図面枠
 100
AcDbBlockReference
   2
NO_NAME_HATCH$0
  10
0.000000
  20
0.000000
  30
0.000000
  50
60.000000
   0
INSERT
   5
194
 100
AcDbEntity
   8
躯体
 100
AcDbBlockReference
   2
NO_NAME_DIMCHAIN
  10
0.000000
  20
0.000000
  30
0.000000
   0
INSERT
   5
195
 100
AcDbEntity
   8
躯体
 100
AcDbBlockReference
   2
NO_NAME_DIMCHAIN$0
  10
0.000000
  20
0.000000
  30
0.000000
   0
INSERT
   5
196
 100
AcDbEntity
   8
躯体
 100
AcDbBlockReference
   2
NO_NAME_DIMCHAIN$1
  10
0.000000
  20
0.000000
  30
0.000000
   0
INSERT
   5
197
 100
AcDbEntity
   8
躯体
 100
AcDbBlockReference
   2
NO_NAME_DIMCHAIN$2
  10
0.000000
  20
0.000000
  30
0.000000
  50
90.000000
   0
INSERT
   5
198
 100
AcDbEntity
   8
躯体
 100
AcDbBlockReference
   2
NO_NAME_DIMCHAIN$3
  10
0.000000
  20
0.000000
  30
0.000000
   0
INSERT
   5
199
 100
AcDbEntity
   8
躯体
 100
AcDbBlockReference
   2
NO_NAME_DIMCHAIN$4
  10
0.000000
  20
0.000000
  30
0.000000
   0
INSERT
   5
19A
 100
AcDbEntity
   8
躯体
 100
AcDbBlockReference
   2
NO_NAME_DIMCHAIN$5
  10
0.000000
  20
0.000000
  30
0.000000
   0
INSERT
   5
19B
 100
AcDbEntity
   8
躯体
 100
AcDbBlockReference
   2
NO_NAME_DIMCHAIN$6
  10
0.000000
  20
0.000000
  30
0.000000
   0
INSERT
   5
19C
 100
AcDbEntity
   8
躯体
 100
AcDbBlockReference
   2
NO_NAME_DIMCHAIN$7
  10
0.000000
  20
0.000000
  30
0.000000
  50
90.000000
   0
INSERT
   5
19D
 100
AcDbEntity
   8
躯体
 100
AcDbBlockReference
   2
NO_NAME_DIMCHAIN$8
  10
0.000000
  20
0.000000
  30
0.000000
  50
90.000000
   0
INSERT
   5
19E
 100
AcDbEntity
   8
躯体
 100
AcDbBlockReference
   2
NO_NAME_DIMCHAIN$9
  10
0.000000
  20
0.000000
  30
0.000000
  50
90.000000
   0
INSERT
   5
19F
 100
AcDbEntity
   8
躯体
 100
AcDbBlockReference
   2
NO_NAME_DIMCHAIN$10
  10
0.000000
  20
0.000000
  30
0.000000
  50
90.000000
   0
INSERT
   5
1A0
 100
AcDbEntity
   8
躯体
 100
AcDbBlockReference
   2
NO_NAME_DIMCHAIN$11
  10
0.000000
  20
0.000000
  30
0.000000
   0
INSERT
   5
1A1
 100
AcDbEntity
   8
躯体
 100
AcDbBlockReference
   2
NO_NAME_DIMCHAIN$12
  10
0.000000
  20
0.000000
  30
0.000000
   0
INSERT
   5
1A2
 100
AcDbEntity
   8
躯体
 100
AcDbBlockReference
   2
NO_NAME_DIMCHAIN$13
  10
0.000000
  20
0.000000
  30
0.000000
   0
INSERT
   5
1A3
 100
AcDbEntity
   8
躯体
 100
AcDbBlockReference
   2
NO_NAME_DIMCHAIN$14
  10
0.000000
  20
0.000000
  30
0.000000
  50
117.000000
   0
INSERT
   5
1A4
 100
AcDbEntity
   8
躯体
 100
AcDbBlockReference
   2
NO_NAME_DIMCHAIN$15
  10
0.000000
  20
0.000000
  30
0.000000
  50
27.000000
   0
INSERT
   5
1A5
 100
AcDbEntity
   8
躯体
 100
AcDbBlockReference
   2
NO_NAME_DIMCHAIN$16
  10
0.000000
  20
0.000000
  30
0.000000
  50
27.000000
   0
INSERT
   5
1A6
 100
AcDbEntity
   8
躯体
 100
AcDbBlockReference
   2
NO_NAME_DIMCHAIN$17
  10
0.000000
  20
0.000000
  30
0.000000
  50
27.000000
   0
INSERT
   5
1A7
 100
AcDbEntity
   8
躯体
 100
AcDbBlockReference
   2
NO_NAME_DIMCHAIN$18
  10
0.000000
  20
0.000000
  30
0.000000
  50
333.000000
   0
INSERT
   5
1A8
 100
AcDbEntity
   8
躯体
 100
AcDbBlockReference
   2
NO_NAME_DIMCHAIN$19
  10
0.000000
  20
0.000000
  30
0.000000
   0
INSERT
   5
1A9
 100
AcDbEntity
   8
躯体
 100
AcDbBlockReference
   2
NO_NAME_DIMCHAIN$20
  10
0.000000
  20
0.000000
  30
0.000000
   0
INSERT
   5
1AA
 100
AcDbEntity
   8
躯体
 100
AcDbBlockReference
   2
NO_NAME_DIMCHAIN$21
  10
0.000000
  20
0.000000
  30
0.000000
   0
INSERT
   5
1AB
 100
AcDbEntity
   8
躯体
 100
AcDbBlockReference
   2
NO_NAME_DIMCHAIN$22
  10
0.000000
  20
0.000000
  30
0.000000
   0
INSERT
   5
1AC
 100
AcDbEntity
   8
躯体
 100
AcDbBlockReference
   2
NO_NAME_DIMCHAIN$23
  10
0.000000
  20
0.000000
  30
0.000000
  50
90.000000
   0
INSERT
   5
1AD
 100
AcDbEntity
   8
躯体
 100
AcDbBlockReference
   2
NO_NAME_DIMCHAIN$24
  10
0.000000
  20
0.000000
  30
0.000000
  50
27.000000
   0
INSERT
   5
1AE
 100
AcDbEntity
   8
躯体
 100
AcDbBlockReference
   2
NO_NAME_DIMCHAIN$25
  10
0.000000
  20
0.000000
  30
0.000000
  50
27.000000
   0
INSERT
   5
1AF
 100
AcDbEntity
   8
躯体
 100
AcDbBlockReference
   2
NO_NAME_DIMCHAIN$26
  10
0.000000
  20
0.000000
  30
0.000000
  50
297.000000
   0
INSERT
   5
1B0
 100
AcDbEntity
   8
躯体
 100
AcDbBlockReference
   2
NO_NAME_DIMCHAIN$27
  10
0.000000
  20
0.000000
  30
0.000000
  50
297.000000
   0
INSERT
   5
1B1
 100
AcDbEntity
   8
間仕切
 100
AcDbBlockReference
   2
NO_NAME$4
  10
0.000000
  20
0.000000
  30
0.000000
   0
VIEWPORT
   5
1B2
 100
AcDbEntity
  67
1
   8
0
 100
AcDbViewport
  10
-7806.912217
  20
-95.704252
  30
0.000000
  40
41870.493174
  41
33769.310917
  68
1
  69
1
1001
ACAD
1000
MVIEW
1002
{
1070
16
1010
0.000000
1020
0.000000
1030
0.000000
1010
0.000000
1020
0.000000
1030
1.000000
1040
0.000000
1040
33769.310917
1040
-7806.912217
1040
-95.704252
1040
50.000000
1040
0.000000
1040
0.000000
1070
0
1070
100
1070
1
1070
1
1070
0
1070
0
1070
0
1070
0
1040
0.000000
1040
0.000000
1040
0.000000
1040
1.000000
1040
1.000000
1040
10.000000
1040
10.000000
1070
0
1002
{
1002
}
1002
}
   0
ENDSEC
   0
SECTION
   2
OBJECTS
   0
DICTIONARY
   5
1B3
 100
AcDbDictionary
   3
ACAD_GROUP
 350
1B4
   3
ACAD_MLINESTYLE
 350
1B5
   0
DICTIONARY
   5
1B4
 102
{ACAD_REACTORS
 330
1B3
 102
}
 100
AcDbDictionary
   0
DICTIONARY
   5
1B5
 102
{ACAD_REACTORS
 330
1B3
 102
}
 100
AcDbDictionary
   3
STANDARD
 350
1B6
   0
MLINESTYLE
   5
1B6
 102
{ACAD_REACTORS
 330
1B5
 102
}
 100
AcDbMlineStyle
   2
STANDARD
  70
0
   3
 
  62
0
  51
90.000000
  52
90.000000
  71
2
  49
0.500000
  62
256
   6
BYLAYER
  49
-0.500000
  62
256
   6
BYLAYER
   0
ENDSEC
   0
EOF
